Mudley

Anseios

Mudley

tabs

by  MUDLEY

save to print version add songbook text version e-mail correct tuner
chordsukulelecavacokeyboardtabbassdrumsharmonicaflute Guitar Pro
close

there isn't a video lesson for this song

chords

Anseios

	  		Mudley - Anseios 
 
Guitarra do Thom 
E------------------------------------------------------------------ 
B------------------------------------------------------------------ 
G------------------------------------------------------------------ 
D------------------------------------------------------------------ 
A--4xx0-00-2-45-4-2--7xx4-5-7-9-9---------------------------------- 
E--2xx2-22-0-00-0-0--5xx5-7-7-7-7---------------------------------- 
 
E------------------------------------------------------------------ 
B------------------------------------------------------------------ 
G------------------------------------------------------------------ 
D------------------------------------------------------------------ 
A--4-4-0-0-2-4-5-4-7-7-4-4-5-7-9-9--------------------------------- 
E--2-2-2-2-0-0-0-0-5-5-5-5-7-7-7-7--------------------------------- 
 
E------------------------------------------------------------------ 
B------------------------------------------------------------------ 
G------------------------------------7-7-6-6----------------------- 
D--------66-7-9-------77-6-4--------------------------------------- 
A--7-777--------7-777--------4-4-4-4-5-5-4-4----------------------- 
E--5-555--------4-444--------2-2-2-2------------------------------- 
 
Guitarra do Cebo 
F# E A B - 2x 
A A/G# F# D 
 
Preciso de um bom motivo pra continuar... 
Guitarra do Thom 
E-----------------------------|------------------------------------ 
B-----------------------------|------------------------------------ 
G-----------------------------|------------------------------------ 
D--7-7-9-9--------------------|--2x---4-4-4-4-7-7-9-9-------------- 
A--5-5-7-7-4-4-4-77-4-4-4-77--|-------2-2-2-2-5-5-7-7-------------- 
E----------2-0-2-55-2-0-2-55--|------------------------------------ 
 
Guitarra do Cebo 
E--------------------------|--------------------------------------- 
B--------------------------|--------------------------------------- 
G---------11x1111-11x1111--|------14-14-13-13-111114-13------------ 
D-7-7-9-9-11x1111-11x1111--|--2x----------------------------------- 
A-5-5-7-7-9-x9-9--9-x9-9---|------12-12-11-11-9-9-12-11------------ 
E--------------------------|--------------------------------------- 
 
É mais fácil viver um sonho... 
E------------------------------------------------------------------ 
B------------------------------------------------------------------ 
G------------------------------------------------------------------ 
D------------------------------------------------------------------ 
A--4-4-0-0-2-4-5-4-7-7-4-4-5-7-9-9--------------------------------- 
E--2-2-2-2-0-0-0-0-5-5-5-5-7-7-7-7--------------------------------- 
 
Existe um vazio em meu ser... 
E------------------------------------------------------------------ 
B------------------------------------------------------------------ 
G------------------------------------7-7-6-6----------------------- 
D--------66-7-9-------77-6-4--------------------------------------- 
A--7-777--------7-777--------4-4-4-4-5-5-4-4----------------------- 
E--5-555--------4-444--------2-2-2-2------------------------------- 
 
O resultado de todas as minhas questões... 
E------------------------------------------------------------------ 
B------------------------------------------------------------------ 
G------------------------------------------------------------------ 
D-4-4-4-4-7-7-7-7-9-999-9-999-------------------------------------- 
A-2-2-2-2-5-5-5-5-7-777-7-777--4----------------------------------- 
E------------------------------2----------------------------------- 
 
Guitarra do Cebo 
E------------------------------------------------------------------ 
B------------------------------------------------------------------ 
G--14-14-14-14-16-16-16-16-18-181818-19-191919--------------------- 
D------------------------------------------------------------------ 
A--12-12-12-12-14-14-14-14-16-161616-17-171717-4------------------- 
E----------------------------------------------2------------------- 
 
Numa angústia que parece eterna... 
Guitarra do Thom 
E------------------------------------------------------------------ 
B------------------------------------------------------------------ 
G-14-14-14-14-16-16-16-16------------------------------------------ 
D------------------------------------------------------------------ 
A-12-12-12-12-14-14-14-14------------------------------------------ 
E------------------------------------------------------------------ 
 
Guitarra do Cebo 
E------------------------------------------------------------------ 
B------------------------------------------------------------------ 
G------------------------------------------------------------------ 
D-7-7-7-7-9-9-9-9-------------------------------------------------- 
A-5-5-5-5-7-7-7-7-------------------------------------------------- 
E------------------------------------------------------------------ 
 

		  

Full key step upFull key step up
Half key step upHalf key step up
Half key step downHalf key step down
Full key step downFull key step down
hide glossary

See also:

tabs Matanza - As melhores putas do alabama tabs Forfun - O mundo vai girar tabs CPM 22 - 60 Segundos tabs Garage Fuzz - Embedded Needs tabs CPM 22 - Amigos Perdidos tabs Tequila Baby - Negue
e-chords

Other versions:

tabs Mudley - Anseios
auto scroll beats size up size down change color hide chords drawings
tab show chords e-chords YouTube Clip e-chords hide all tabs e-chords go to top tab

share