Muddy Waters

Honey Bee

Muddy Waters

tabs Easy easy

by  EDUCASTILHO

save to print version add songbook text version e-mail correct tuner
chordsukulelecavacokeyboardtabbassdrumsharmonicaflute Guitar Pro
close

there isn't a video lesson for this song

chords

Honey Bee

	  		Intro 
Q.=78 
                                    B7 
 12/8 
          Gtr I 
  H.      Q  E     Q      E         Q        E       Q        E Q.          Q      E 
|------------7-----7------7-----|---7--------7-------7----------7------------------7-| 
|------------8b8.5-8b8.5--8b8.5-|---8b8.5----8b8.5---8b8.5----0----------------------| 
|-------------------------------|----------------------------------------------------| 
|-------------------------------|----------------------------------------------------| 
|-------------------------------|----------------------------------------------------| 
|-------------------------------|----------------------------------------------------| 
| 
| Gtr II 
| W                               a Q      a E     a Q      a E E  a a Q  a q  a a E 
|-------------------------------|----------------------------------------------------| 
|-------------------------------|----------------------------------------------------| 
|-------------------------------|----------------------------------------------------| 
|-------------------------------|-0h2------0h2-----0h2------0h2-2--------------------| 
|-------------------------------|----------------------------------2p0h2--0h2--2p0h2-| 
|-------------------------------|----------------------------------------------------| 


    A9 
    E     E       E       E     E   E   E E   E E E E 
|---7-----7-------7-------7---------5---7-5---7-7-0-0-------| 
|---8b8.5-8b8.5---8b8.5---8b8.5-0---------------------------| 
|-----------------------------------------------------------| 
|-----------------------------------------------------------| 
|-----------------------------------------------------------| 
|-----------------------------------------------------------| 
| 
| a Q           a E     a Q       a E a E E a E E E E 
|-----------------------------------------------------------| 
|-----------------------------------------------------------| 
|-----------------------------------------------------------| 
|-0h2-----------0h2-----0h2-------0h2-0h2-0-----0-----------| 
|-------------------------------------------0h2---2---------| 
|---------------------------------------------------3b3.5---| 


  E7                                                          B7 
  Q.    E a E a E a S S   E a E a S S E a E   E +E    E E E E Q  E E E E 
|-0-----0-3s5-3s5-3s5s3---0-3s5-3s5s3-0-3s4-|------------------------4-4--|| 
|-------------------------------------------|-5-(5)--------------------5--|| 
|-------------------------------------------|--------------------------4--|| 
|-------------------------------------------|----------------------1------|| 
|-------------------------------------------|-----------0-1-2-2--2--------|| 
|-------------------------------------------|-0---------------------------|| 
| 
| Q   E E   E   E a E   a E a E a Q       E   Q     a E E E E Q  E E E E 
|-------------------------------------------|-----------------------------|| 
|-------------------------------------------|-----------------------------|| 
|-----------------------0h2-0h2-0h2---------|----------------------0------|| 
|-------0---1---2-0h2---------------------2-|----------------------0-1-2--|| 
|-----2-------------------------------------|-----------0-1-2-2--2--------|| 
|-0-----------------------------------------|-------2h3-------------------|| 


 Verse 
  E7 
  ~~ 
  Q.   E E E E E E E E E   Q.   E E E E E E Q      E 
|-4------4-4-4-4-4-4-4-4-|-4----4-4-4-4-4-4--------4-| 
|-3----------5---5---5-5-|-5------5-5-5-5-5----------| 
|-4----------------------|-4-------------------------| 
|------------------------|---------------------------| 
|------------------------|---------------------------| 
|------------------------|---------------------------| 
| 
| Q.   Q   E Q   E Q   E   Q.   Q   E Q   E Q      E 
|------------------------|---------------------------| 
|------------------------|---------------------------| 
|------------------------|---------------------------| 
|-2----------------0---0-|-2----0---0----------------| 
|------------2---2-------|------------2---2----------| 
|------3---4-------------|------------------3b3.5--0-| 


  a E E E E E E E E E E     E E   a E E E a E E E Q  E E Q 
|-3s4-4-4-4-4-4-4-4-4-4-----4-4-|-3s4-4-4-3s4-4-4-4--4-4-----| 
|-4s5-5-5-5-5-5-5---5-5-----5-5-|-4s5-5-5-4s5-5-5-5--5-5-----| 
|-------------------------------|-----------------4----------| 
|-------------------------------|----------------------------| 
|-------------------------------|----------------------------| 
|-------------------------------|----------------------------| 
| 
|   Q   E Q   E Q   E Q       E     Q   E   Q   E Q  E Q   E 
|-------------------------------|----------------------------| 
|-------------------------------|----------------------------| 
|-------------------------------|----------------------------| 
|---------0---0-----------------|---2---2---0---0------------| 
|---2---2-------2---2-----------|-----------------2--2-------| 
|---------------------3b3.5---0-|----------------------3---4-| 


  A7 
  Q.    Q.    +Q       E +Q. 
|-------3-----(3)b3.5--3-(3)b3.5------| 
|-------------------------------------| 
|-------------------------------------| 
|-------------------------------------| 
|-------------------------------------| 
|-------------------------------------| 
| 
| Q   E Q   E  Q       E  E      E E 
|-------------------------------------| 
|-------------------------------------| 
|-------------------------0-----------| 
|--------------2-------2-----------2--| 
|-0---0-3---4--------------------4----| 
|-------------------------------------| 


  Q.    q.    q.    q.      a a E E E a E a E a S S E a E a S S E E E 
|-3-----------------------|-------0-0-3s5-3s5-3s5s3-0-3s5-3s5s3-0-3s4-| 
|-2-----------------------|-------------------------------------------| 
|-------------------------|-0h1p0-------------------------------------| 
|-------------------------|-------------------------------------------| 
|-------0-----0-----0-----|-------------------------------------------| 
|-------0-----0-----0-----|-------------------------------------------| 
| 
| Q   E Q   E Q   E Q   E       Q   E   E   E   E   E   E   E   E E E 
|-------------------------|-------------------------------------------| 
|-------------------------|-------------------------------------------| 
|-------------------0-----|-------------------------------------------| 
|-------------2---2-----2-|-------------0---1---2---2---0-------------| 
|-0---0-3---4-------------|---------2-----------------------2---1-0---| 
|-------------------------|-----0-----------------------------------3-| 


                                 B7 
   ~~~~~~~~~~~~~ 
  +Q.   E E E Q  E S     S Q     Q.    Q.    Q  E E E E 
|-(4)---0-0-0-0--0-------------|-2--------------2-2-----| 
|------------------5s====3-0---|------------------------| 
|------------------------------|------------------------| 
|------------------------------|------------------------| 
|------------------------------|-------2-----2----------| 
|------------------------------|--------------------3-3-| 
| 
|  Q.   E E E Q  E E       E E   Q   E Q   E Q  E Q   E 
|------------------------------|------------------------| 
|------------------------------|------------------------| 
|------------------------------|------------------1---1-| 
|--2----0-1-2-2--2-------------|-------1---1-4--4-------| 
|--------------------------0-1-|-2---2------------------| 
|------------------3b3.5-------|------------------------| 


  A7                          E7 
  q.    Q  E Q.       Q.      a a Q   E E a E a E a E E a E a E     E a E 
|-------3--3-3b3.5----------|---------0-0-3s5-3s5-3s5-0-3s5-3s4-----0-2s4--| 
|---------------------------|----------------------------------------------| 
|---------------------------|-0h1p0----------------------------------------| 
|---------------------------|----------------------------------------------| 
|-0-------------------------|----------------------------------------------| 
|---------------------------|----------------------------------------------| 
| 
| Q   E Q  E Q      E Q   E       Q.    E   E   E   E E   E   E     E   E 
|---------------------------|----------------------------------------------| 
|---------------------------|----------------------------------------------| 
|---------------------0-----|----------------------------------------------| 
|------------2------2-----2-|-----------------------0-----0----------------| 
|-0---0-3--4----------------|-----------0---1---2-----2-----------------2--| 
|---------------------------|-----0---------------------------3b3.5-0------| 


                               Verse 
                  B7            E7 
                                ~~ 
  E +E    E E E E Q  E E E E    Q.   Q  E E E E E a E a E 
|------------------------4-0-||-4-------4-4-4-4-4-3s4-3s4-| 
|-5-(5)--------------------0-||-5-----------5-5-5-4s5-4s5-| 
|----------------------------||-4-----------------3s4-3s4-| 
|----------------------------||---------------------------| 
|-----------0-1-2-2--2-------||---------------------------| 
|----------------------------||---------------------------| 
| 
| Q     a E E E E Q  E E E E    Q.   Q  E Q   E Q       E 
|----------------------------||---------------------------| 
|----------------------------||---------------------------| 
|----------------------------||---------------------------| 
|-2--------------------0-1-2-||-2---------------0-------0-| 
|-----------0-1-2-2--2-------||-----------2---2-----------| 
|-------2h3------------------||------3--4-----------------| 


  Q.   E E E E E E E     E E   a E E E E E E E E E E     E E 
|-4----4-4-4-4-4-4-4-----4-4-|-3s4-4-4-4-4-4-4-4-4-4-----4-4-| 
|-5------5-5-5-5---5-----5---|-4s5-5-5-5-5-5-5-5-5-5-----5-5-| 
|----------------------------|-3s4-4-4-----------------------| 
|----------------------------|-------------------------------| 
|----------------------------|-------------------------------| 
|----------------------------|-------------------------------| 
| 
| Q.   Q   E Q   E Q       E     Q   E Q   E Q   E Q       E 
|----------------------------|-------------------------------| 
|----------------------------|-------------------------------| 
|----------------------------|-------------------------------| 
|-2----0---0-----------------|---------0---0-----------------| 
|------------2---2-----------|---2---2-------2---2-----------| 
|------------------3b3.5---0-|---------------------3b3.5---0-| 


                                 A7 
  a E E E a E E E Q  a E e E E   Q.    Q.       q  E +Q. 
|-----4-4-----4-4-4--3s4-4-----|-------3b3.5-------3-(3)b3.5-----| 
|-4s5-5-5-4s5-5-5-5--4s5-5-----|---------------------------------| 
|-3s4-4-4-3s4---4-4--3s4-4-----|---------------------------------| 
|----------------------------0-|-2-------------------------------| 
|--------------------------2---|----------------0----------------| 
|------------------------------|----------------2----------------| 
| 
|   Q   E   Q   E Q    E Q   E   Q   E Q      E Q  E  E      E E 
|------------------------------|---------------------------------| 
|------------------------------|---------------------------------| 
|------------------------------|----------------------0----------| 
|---2---2---0---0--------------|----------------2--2-----------2-| 
|-----------------2----2-------|-0---0-3------4--------------4---| 
|------------------------3---4-|---------------------------------| 


                               E7 
  Q.       q.    q.    q.      a a Q  E E a E a E a E a E a E S E   S E 
|-3b3.5----------------------|--------0-0-------------------------------| 
|----------------------------|------------------------------------------| 
|----------------------------|-0h1p0------3s4-3s4-3s4-3s4-3s4-3-2p==0---| 
|----------------------------|----------------------------------------2-| 
|----------0-----0-----0-----|------------------------------------------| 
|----------0-----0-----0-----|------------------------------------------| 
| 
| Q      E Q   E Q   E Q   E       Q  E E   E   E   E   E   E E   E   E 
|----------------------------|------------------------------------------| 
|----------------------------|------------------------------------------| 
|----------------------0-----|------------------------------------------| 
|----------------2---2-----2-|----------0---1---2---2---0---------------| 
|-0------0-3---4-------------|--------2---------------------2-1---0-----| 
|----------------------------|-----0----------------------------------3-| 


                                       B7 
              ~~~~~~~~~~~ 
  a a Q   E a E Q   Q  E S     S E E   Q.    q  q   E E E E E 
|---------0--------------------------|-2------------2-2-2---------| 
|------------------------------------|----------------------------| 
|-0h1p0-----2s4-4---4--4-4s====2-0---|----------------------------| 
|------------------------------------|----------0-----------------| 
|----------------------------------2-|-------0--0-----------------| 
|------------------------------------|-------0--0---------3-3b3.5-| 
| 
|     Q.      E E E Q  E E       E E   Q   E Q  E Q   E Q   E 
|------------------------------------|----------------------------| 
|------------------------------------|----------------------------| 
|------------------------------------|----------------------------| 
|-----2-------0-1-2-2--2-------------|------------------1---1-----| 
|--------------------------------0-1-|-2---2-1--1-4---4-----------| 
|------------------------3b3.5-------|----------------------------| 


  A7                              E7 
  q.    Q.       Q.       Q.      a a Q   E E a E a E a E E a E a E E a E 
|-------3b3.5----3b3.5----------|---------0-0-3s5-3s5-3s5-0-3s5-3s4-0-3s4--| 
|-------------------------------|------------------------------------------| 
|-------------------------------|-0h1p0------------------------------------| 
|-------------------------------|------------------------------------------| 
|-0-----------------------------|------------------------------------------| 
|-------------------------------|------------------------------------------| 
| 
| Q   E Q      E Q      E Q   E       Q.    E   E   E   E E   E   E E   E 
|-------------------------------|------------------------------------------| 
|-------------------------------|------------------------------------------| 
|-------------------------0-----|------------------------------------------| 
|----------------2------2-----2-|-----------------------0-----0---------2--| 
|-0---0-3------4----------------|-----------0---1---2-----2----------------| 
|-------------------------------|-----0---------------------------3-0------| 


                             Guitar Solo 
             B7               E7 
  Q    E E E E Q  E Q.         a  E   E  E  E  E  E  E  E  E  S  S  S  S  S  S 
|--------------------------||-10s12--12-12-12-12-12-12-12-12-12s11-12s11-12s11-| 
|-5------------------------||--------------------------------------------------| 
|--------------------------||--------------------------------------------------| 
|--------------------------||--------------------------------------------------| 
|--------0-1-2-2--1--------||--------------------------------------------------| 
|--------------------------||--------------------------------------------------| 
| 
| Q  a E E E E Q  E E  E E        Q.        Q     E  Q     E  Q           E 
|--------------------------||--------------------------------------------------| 
|--------------------------||--------------------------------------------------| 
|-------------------0------||--------------------------------------------------| 
|-2-----------------0--1-2-||-----2---------------------------0-----------0----| 
|--------0-1-2-2--2--------||------------------------2-----2-------------------| 
|----2h3-------------------||---------------3-----4----------------------------| 


                                 ~~ 
   a  E   a  E  a  E  a  E a E E H. 
|-11s12--11s12-11s12-11s12----------------------| 
|-11s12--11s12-11s12-11s12-8s9------------------| 
|------------------------------9-9--------------| 
|-----------------------------------------------| 
|-----------------------------------------------| 
|-----------------------------------------------| 
| 
|     Q.                 Q     E Q   E Q      E 
|-----------------------------------------------| 
|-----------------------------------------------| 
|-----------------------------------------------| 
|-----2------------------0-----0----------------| 
|--------------------------------2---2----------| 
|--------------------------------------3b3.5--0-| 


             ~~~~~~~~ 
    E  E  E  E  E  E  E  S  S  S  S  S      S  S  S  S  S 
|-/12-12-12-12-12-12-12-12s11-12s11-12s====11-12s11-12s11--| 
|----------------------------------------------------------| 
|----------------------------------------------------------| 
|----------------------------------------------------------| 
|----------------------------------------------------------| 
|----------------------------------------------------------| 
| 
|   Q     E  Q     E  Q        E     Q               E 
|----------------------------------------------------------| 
|----------------------------------------------------------| 
|----------------------------------------------------------| 
|------------0-----0---------------------------------------| 
|---2-----2-----------2--------2---------------------------| 
|------------------------------------3b3.5-----------0-----| 


                                                   A9 
                                ~                  ~~~~~~~~~~~~~~~~~~~~~~~~ 
   a  E  a  E  a  E  a  E a E E Q  a E a E E a E   E E E E E E E E E E E E 
|-11s12-11s12-11s12-11s12------------------------|--------------------------| 
|-11s12-11s12-11s12-11s12-8s9--------------------|--------------------------| 
|-----------------------------9-9--7s9-7s9-0-2s4-|-4-4-4-4-4-4-4-4-4-4-4-4--| 
|------------------------------------------------|--------------------------| 
|------------------------------------------------|--------------------------| 
|------------------------------------------------|--------------------------| 
| 
|     Q           E     Q     E Q    E   Q     E   Q   E Q   E Q   E E E E 
|------------------------------------------------|--------------------------| 
|------------------------------------------------|--------------------------| 
|------------------------------------------------|-------------------0------| 
|-----2-----------2-----0-----0------------------|-------------2---2-----2--| 
|-------------------------------2----2-----------|-0---0-3---4---------4----| 
|----------------------------------------3-----4-|--------------------------| 


  A7                                E7 
    ~~~~~~~~~~~~ 
  a E E E E E E a E E E a S S E E   +Q   E E a E a E a E E a E a E E a E 
|---------------------------------|------0-0-3s5-3s5-3s5-0-3s5-3s5-0-3s4--| 
|---------------------------------|---------------------------------------| 
|-2s4-4-4-4-4-4-2s3s2-0-2s3s2-0---|---------------------------------------| 
|-------------------------------2-|-(2)-----------------------------------| 
|---------------------------------|---------------------------------------| 
|---------------------------------|---------------------------------------| 
| 
|   Q   E Q   E   Q   E   Q     E    Q   E E   E   E   E E   E   E E   E 
|---------------------------------|---------------------------------------| 
|---------------------------------|---------------------------------------| 
|-------------------------0-------|---------------------------------------| 
|-----------------2---2---------2-|--------0---1---2---2-0----------------| 
|---0---0-3---4-------------------|------2-------------------2---1-0------| 
|---------------------------------|--0---------------------------------3--| 


                                  B7 
  ~~~~~~~~~~~                       ~~~~~~~~~~~~~~~~~~~~~~~~ 
  Q.   E E E Q  a E a S S E a E   a E E E E E E E E E E E E 
|-------------------------------|---------------------------| 
|-5----5-5-5-5--3s5-3s5s3-0-----|---------------------------| 
|---------------------------2s3-|-3s4-4-4-4-4-3-3-2-2-2-2-2-| 
|-------------------------------|---------------------------| 
|-------------------------------|---------------------------| 
|-------------------------------|---------------------------| 
| 
| Q.   E E E Q    E   E   E   E     Q   E Q   E Q   E Q   E 
|-------------------------------|---------------------------| 
|-------------------------------|---------------------------| 
|-------------------------------|---------------------1---1-| 
|-2----0-1-2-2----2-------------|---------1---1-4---4-------| 
|-------------------------0---1-|---2---2-------------------| 
|---------------------3---------|---------------------------| 


  A7                               E7                A7 
  a E E E E E E S E. E a S E S E   +Q.   E a E a E a E E a E a S S E a E 
|--------------------------------|-------0-3s4-3s5-3s5-0-3s5-3s5s3-0-2s4--| 
|--------------------------------|----------------------------------------| 
|-2s4-4-4-4-4-4-3s2--0-2s3s2-0---|----------------------------------------| 
|------------------------------2-|-(2)------------------------------------| 
|--------------------------------|----------------------------------------| 
|--------------------------------|----------------------------------------| 
| 
|   Q   E Q   E Q    E   Q     E    Q.   E   E   E   E E   E   E   E   E 
|--------------------------------|----------------------------------------| 
|--------------------------------|----------------------------------------| 
|------------------------0-------|----------------------------------------| 
|---------------2----2---------2-|-------------------0-----0--------------| 
|---0---0-3---4------------------|-------0---1---2-----2---------------2--| 
|--------------------------------|--0--------------------------3---0------| 


                             Verse 
  E7           B7 
                              ~~ 
  Q.     E E E Q   E e E E    Q.   +Q   E E E E E a E E 
|-0--------------------4---||-4----(4)--4-4-4-4-4-3s4-4-| 
|-5----------------------5-||-5----(5)----5-5-5-5-4s5-5-| 
|--------------------0---4-||-4----(4)------------3s4-4-| 
|--------------------0-----||---------------------------| 
|--------0-1-2-2---2-------||---------------------------| 
|--------------------------||---------------------------| 
| 
| Gtr II 
| Q.   a E E E E Q   E E E    Q.    Q.    Q   E E a E E 
|--------------------------||---------------------------| 
|--------------------------||---------------------------| 
|--------------------------||---------------------------| 
|-2------------------0-1-2-||-2-----------------------0-| 
|----------0-1-2-2---------||-------------------0-1h2---| 
|------2h3-----------------||-----------------3---------| 


  ~~~~~~~~                          ~~~~~~~~~~~~~~~~~~ 
  Q.   Q.    Q.    Q   E   a E  E E E E E E E E E E E 
|-4----4-----------------|-3s4--4-4-4-4-4-4-4-4-4-4-4-| 
|-5----5-----------------|-4s5--5-5-5-5-5-5-5-5-5-5-5-| 
|------------------------|-3s4--4-4-------------------| 
|------------------------|----------------------------| 
|------------------------|----------------------------| 
|------------0-----0---0-|----------------------------| 
| 
|                            TP 
| q.   Q   E Q   E E E E   a W. 
|------------------------|----------------------------| 
|------------------------|----------------------------| 
|------------------------|-2h4------------------------| 
|------0---0-------0-2---|----------------------------| 
|-0----------2---2-----0-|----------------------------| 
|------------------------|----------------------------| 


                                      A7 
  a E  E E a E  E E   E E E E E   E   q.    Q.    Q  E E E E 
|-3s4--4-4-2s4--4-4---2s4-4-4-3-----|----------------4-------| 
|-4s5--5-5-4s5--5-5---4s5-5-5-------|------------------------| 
|-----------------------------------|------------------------| 
|-----------------------------------|-0--------------------2-| 
|-----------------------------------|--------------------4---| 
|-----------------------------------|------------------------| 
| 
|   TP       TP       TP 
| a Q.     a Q.     a Q.    E S S E   Q   E Q   E Q  E Q   E 
|-----------------------------------|------------------------| 
|-----------------------------------|------------------------| 
|-2s4------2s4------2s4-----4-2p0---|------------------0---0-| 
|---------------------------------2-|-0-----------2--2-------| 
|-----------------------------------|-----0-3---4------------| 
|-----------------------------------|------------------------| 


                               E7 
  Q.    Q.    Q.    Q.         a a  Q   E   E  a E a E a E  E a E a E E a E 
|-3--------------------------|----------0---0--2p0-2p0-2p0--0-2p0-3s4-0-2s0---| 
|----------------------------|------------------------------------------------| 
|----------------------------|-0h1p=0-----------------------------------------| 
|----------------------------|------------------------------------------------| 
|-------0-----0-----0--------|------------------------------------------------| 
|-------0-----0-----0--------|------------------------------------------------| 
| 
|                                           TP           TP         TP 
| Q   E Q   E Q   E E  S S E        Q.    a Q.         a Q.       a Q     S S 
|----------------------------|-----^0-----------------------------------------| 
|----------------------------|-----^0-----------------------------------------| 
|----------------------------|-----^1-----2s4----------2s4--------2s4-----2p0-| 
|-------------2---5------0-2-|-----^2-----------------------------------------| 
|-0---0-3---4-------3--3-----|-----^2-----------------------------------------| 
|----------------------------|-----^0-----------------------------------------| 


                                         B7 
  ~~~~~~~~~~~~~~~~~~~~~~~~ 
  Q.        E  E E   E  Q  a S S E   E   Q.    q.    Q  E E E E 
|-0------------------------------------|-2--------------2-2-----| 
|-5---------5--5-5---5--5--3s5s3-0-----|------------------------| 
|--------------------------------------|------------------------| 
|--------------------------------------|------------------------| 
|--------------------------------------|-------0-----0----------| 
|--------------------------------------|-------0-----0------3-3-| 
| 
|           TP       TP 
| s  E. E a Q.     a Q.      E   S S E   Q   E Q   E Q  E Q   E 
|--------------------------------------|------------------------| 
|--------------------------------------|------------------------| 
|----0--0-2s4------2s4-------2---------|------------------2---2-| 
|-2------------------------------2p0---|-------0---1-4--4-------| 
|------------------------------------2-|-2---2------------------| 
|--------------------------------------|------------------------| 


  A7 
  Q.    Q.       Q.       q. 
|-------3b3.5----3b3.5-----------| 
|--------------------------------| 
|--------------------------------| 
|--------------------------------| 
|-0--------------0--------0------| 
|-------0------------------------| 
| 
| Q   E Q      E Q      E E  E E 
|--------------------------------| 
|--------------------------------| 
|-----------------------0--------| 
|----------------2-------------2-| 
|-0---0-3------4----------0--2---| 
|--------------------------------| 


  E7 
  a S S Q    a  Q    a  E  a  Q   a  E  a  Q   a E 
|-----------10s12---10s12-10s12--11s12-11s12\--8s9--| 
|--------------------------------11s12-11s12\--7s9--| 
|-0h1p0-1-------------------------------------------| 
|---------------------------------------------------| 
|---------------------------------------------------| 
|---------------------------------------------------| 
| 
|   Q     E     E E     E     Q      E     Q     E 
|---------------------------------------------------| 
|---------------------------------------------------| 
|---------------------------------------------------| 
|---------------0-1-----2-----0---------------------| 
|---------2--------------------------2-----1-----2--| 
|---0-----------------------------------------------| 


  E6               E9 
  E E a E Q  E  Q  E Q  E   +H     W 
|-9s4-7s9-9--9\----7-7--7-|-(7)---------*| 
|-9s4-7s9-9--9\----7-7--7-|-(7)---------*| 
|-9s4-7s9-9--9\----7-7--7-|-(7)---------*| 
|-------------------------|-------------*| 
|-------------------------|-------------*| 
|-------------------------|-------------*| 
| 
| q.      Q  E  Q  E Q  E   +H     W 
|-------------------------|-------------*| 
|-------------------------|-------------*| 
|---------0--0------------|-------------*| 
|-2-------2--2-----2-0--0-|-(0)---------*| 
|-2-----------------------|-------------*| 
|--------------------0--0-|-(0)---------*| 
		  

auto scroll beats size up size down change color hide chords drawings
tab show chords e-chords YouTube Clip e-chords hide all tabs e-chords go to top tab

share