Mountain Man

Loon Song

Mountain Man

tabs

by  EDUCASTILHO

save to print version add songbook text version e-mail correct tuner
chordsukulelecavacokeyboardtabbassdrumsharmonicaflute Guitar Pro
close

there isn't a video lesson for this song

chords

Loon Song

	  		

(/) Slide Up 

E|--3-3-3-3-3-3-4/7-5-0-0-0-0-0-0--0--0-0-0-0-0-0-0-0-----0-0-0-0-0-0-0-0-| 
B|--0-0-0-0-0-0--0--0-5-5-5-5-5-5-6/8-5-3-3-3-3-3-3-3-5-3-3-3-3-3-3-3-3-3-| 
G|--0-0-0-0-0-0--0--0-0-0-0-0-0-0--0--0-0-0-0-0-0-0-0-----0-0-0-0-0-0-0-0-| 
D|------------------------------------------------------------------------| 
A|------------------------------------------------------------------------| 
E|------------------------------------------------------------------------| 


During the Chorus, there is a pause. If you listen to the soundtrack you will know when  
to stop. 


E|--3-3-3-3-3-3-------------------------0-0-0-0-0-0-0-----0-0-0-0-0-0-0-0-| 
B|--0-0-0-0-0-0-------------------------3-3-3-3-3-3-3-5-3-3-3-3-3-3-3-3-3-| 
G|--0-0-0-0-0-0-------------------------0-0-0-0-0-0-0-----0-0-0-0-0-0-0-0-| 
D|------------------------------------------------------------------------| 
A|------------------------------------------------------------------------| 
E|------------------------------------------------------------------------| 
		  

See also:

tabs Deep Purple - Deep Purple - Smoke On The Water tabs Ira! - Dias de Luta (Intro - Acustico Mtv) tabs Deep Purple - Smoke on The Water (ver.3) tabs Deep Purple - Into The Fire tabs Deep Purple - When a Blind man cries tabs Deep Purple - Highway Star
e-chords

Other versions:

tabs Mountain Man - Loon Song
auto scroll beats size up size down change color hide chords drawings
tab show chords e-chords YouTube Clip e-chords hide all tabs e-chords go to top tab

share