Mount Eerie

Wooly Mammoths Mighty Absence

Mount Eerie

tabs

by  DEIVCAVALCANTI

save to print version add songbook text version e-mail correct tuner
chordsukulelecavacokeyboardtabbassdrumsharmonicaflute Guitar Pro
close

there isn't a video lesson for this song

chords

Wooly Mammoths Mighty Absence

	  		

Verse 

e|----------0---0-----------0---0------------0---0-------------0---0---------| 
e|----------0---0-----------0---0------------0---0-------------0---0---------| 
G|----------6---6-----------6---6------------6---6-------------6---6---------| 
D|----------6---6-----------6---6------------6---6-------------6---6---------| 
A|------4-------------------0---0------------0---0-------------0---0---------| 
E|----------------------5----------------4-----------------0-----------------| 

e|----------0---0-----0-----0---0------------0---0------0------0---0---------| 
B|----------0---0-----0-----0---0------------0---0------0------0---0---------| 
G|----------6---6-----6-----6---6------------6---6------6------6---6---------| 
D|----------6---6-----6-----6---6------------6---6------6------6---6---------| 
A|----------0---0-----0-----0---0------------0---0------0------0---0---------| 
E|------5--------------------------------7-----------------------------------| 

Bridge 

Between each Verse: 

e|----------0---0-----0-----0---0------------0---0------0------0---0---------| 
B|----------6---6-----0-----0---0------------0---0------0------0---0---------| 
G|----------6---6-----6-----6---6------------6---6------6------6---6---------| 
D|----------6---6-----6-----6---6------------6---6------6------6---6---------| 
A|----------0---0-----0-----0---0------------0---0------0------0---0---------| 
E|------0--------------------------------0-----------------------------------| 
		  

See also:

tabs Deep Purple - Smoke On The Water (Intermediate Intro) tabs Deep Purple - Space Truckin tabs Deep Purple - Smoke On The Water (Easy Intro) tabs Ira! - Prisão das Ruas tabs Doa - Sexyest Girl tabs Deep Purple - Ted The Mechanic
e-chords

Other versions:

tabs Mount Eerie - Wooly Mammoths Mighty Absence
auto scroll beats size up size down change color hide chords drawings
tab show chords e-chords YouTube Clip e-chords hide all tabs e-chords go to top tab

share