Motley Crue

home > Motley Crue

Take Me To The Top Tab

Motley Crue

Difficulty: nolevelnolevel

tuner correct add songbook print version text version save to e-mail
chordsukulelecavacokeyboardtabbassdrumsharmonicsflute Guitar Pro
chords

Take Me To The Top

  		PM- palm mute 
h- hammeron 
p- pull off 
/- slide up 
~- let ring 
nh- natural harmonic 
\/- dive with bar 
 
d tuning- dafcgd 
 
intro- x8 
   PM         PM        PM 
d-------------------------------- 
a-------------------------------- 
f-------9--7-------3--5-----5--7- 
c-------7--7-------3--3-----5--5- 
g--0-0--------0-0--------0------- 
d-------------------------------- 
 
   PM      PM      PM    PM   nh-------| 
d--------------------------------------- 
a---------------------------------5---5- 
f-------9-------9------9------5-5---5--- 
c-------7-------7------7---------------- 
g--0-0-----0-0-----0-0----0------------- 
d--------------------------------------- 
 
   PM      PM      PM     PM 
d---------------------------------- 
a---------------------------------- 
f-------9-------9-------9-----9--7- 
c-------7-------7-------7-----7--5- 
g--0-0-----0-0-----0-0-----0------- 
d---------------------------------- 
 
   PM      PM      PM     PM 
d---------------------------------- 
a---------------------------------- 
f-------9-------9-------9-----9--7- 
c-------7-------7-------7-----7--5- 
g--0-0-----0-0-----0-0-----0------- 
d---------------------------------- 
 
 
   PM      PM      PM     PM 
d----------------------------------- 
a----------------------------------- 
f-------9-------9-------9-----9--7~- 
c-------7-------7-------7-----7--5~- 
g--0-0-----0-0-----0-0-----0-------- 
d----------------------------------- 
 
when picking 16th notes move up the fretboard  
d------------------------------------------ 
a------------------------------------------ 
f------------------------------------------ 
c------------------------------------------ 
g--3---5---0-0-0-0-0-0-0-0-0-0-0-0-0-0-0-0- 
d--1---3----------------------------------- 
 
when picking 16th notes move down the fretboard  
d------------------------------------------ 
a------------------------------------------ 
f------------------------------------------ 
c------------------------------------------ 
g--3---5---0-0-0-0-0-0-0-0-0-0-0-0-0-0-0-0- 
d--1---3----------------------------------- 
 
verse 
           PM------------|      PM-------------| 
d----------------------------------------------- 
a----------------------------------------------- 
f----------------------------------------------- 
c----------2-2-2-2-2-2-2-2--5~--2-2-2-2-2-2-2-2- 
g--3---5---0-0-0-0-0-0-0-0--3~--0-0-0-0-0-0-0-0- 
d--1---3---------------------------------------- 
 
      PM------|     PM------|      PM-----------| 
d---------------------------------------------------- 
a---------------------------------------------------- 
f---------------------------------------------------- 
c--7--7-7-7-7-7--9--9-9-9-9-9--10--10-10-10-10-10-12- 
g--5--5-5-5-5-5--7--7-7-7-7-7--8---8--8--8--8--8--10- 
d---------------------------------------------------- 
 
           PM------------|      PM-------------| 
d----------------------------------------------- 
a----------------------------------------------- 
f----------------------------------------------- 
c----------2-2-2-2-2-2-2-2--5~--2-2-2-2-2-2-2-2- 
g--3---5---0-0-0-0-0-0-0-0--3~--0-0-0-0-0-0-0-0- 
d--1---3---------------------------------------- 
 
      PM------|     PM------|      PM-----------| 
d---------------------------------------------------- 
a---------------------------------------------------- 
f---------------------------------------------------- 
c--7--7-7-7-7-7--9--9-9-9-9-9--10--10-10-10-10-10-10- 
g--5--5-5-5-5-5--7--7-7-7-7-7--8---8--8--8--8--8--8-- 
d---------------------------------------------------- 
 
chorus- x8 
   PM         PM        PM 
d-------------------------------- 
a-------------------------------- 
f-------9--7-------3--5-----5--7- 
c-------7--7-------3--3-----5--5- 
g--0-0--------0-0--------0------- 
d-------------------------------- 
 
   PM      PM      PM     PM 
d---------------------------------- 
a---------------------------------- 
f-------9-------9-------9-----9--7- 
c-------7-------7-------7-----7--5- 
g--0-0-----0-0-----0-0-----0------- 
d---------------------------------- 
 
 
   PM      PM      PM     PM 
d----------------------------------- 
a----------------------------------- 
f-------9-------9-------9-----9--7~- 
c-------7-------7-------7-----7--5~- 
g--0-0-----0-0-----0-0-----0-------- 
d----------------------------------- 
 
when picking 16th notes move up the fretboard 
d------------------------------------------ 
a------------------------------------------ 
f------------------------------------------ 
c------------------------------------------ 
g--3---5---0-0-0-0-0-0-0-0-0-0-0-0-0-0-0-0- 
d--1---3----------------------------------- 
 
when picking 16th notes move down the fretboard  
d------------------------------------------ 
a------------------------------------------ 
f------------------------------------------ 
c------------------------------------------ 
g--3---5---0-0-0-0-0-0-0-0-0-0-0-0-0-0-0-0- 
d--1---3----------------------------------- 
 
verse 
           PM------------|      PM-------------| 
d----------------------------------------------- 
a----------------------------------------------- 
f----------------------------------------------- 
c----------2-2-2-2-2-2-2-2--5~--2-2-2-2-2-2-2-2- 
g--3---5---0-0-0-0-0-0-0-0--3~--0-0-0-0-0-0-0-0- 
d--1---3---------------------------------------- 
 
      PM------|     PM------|      PM-----------| 
d---------------------------------------------------- 
a---------------------------------------------------- 
f---------------------------------------------------- 
c--7--7-7-7-7-7--9--9-9-9-9-9--10--10-10-10-10-10-12- 
g--5--5-5-5-5-5--7--7-7-7-7-7--8---8--8--8--8--8--10- 
d---------------------------------------------------- 
 
           PM------------|      PM-------------| 
d----------------------------------------------- 
a----------------------------------------------- 
f----------------------------------------------- 
c----------2-2-2-2-2-2-2-2--5~--2-2-2-2-2-2-2-2- 
g--3---5---0-0-0-0-0-0-0-0--3~--0-0-0-0-0-0-0-0- 
d--1---3---------------------------------------- 
 
      PM------|     PM------|      PM-----------| 
d---------------------------------------------------- 
a---------------------------------------------------- 
f---------------------------------------------------- 
c--7--7-7-7-7-7--9--9-9-9-9-9--10--10-10-10-10-10-10- 
g--5--5-5-5-5-5--7--7-7-7-7-7--8---8--8--8--8--8--8-- 
d---------------------------------------------------- 
 
chorus- x8 
   PM         PM        PM 
d-------------------------------- 
a-------------------------------- 
f-------9--7-------3--5-----5--7- 
c-------7--7-------3--3-----5--5- 
g--0-0--------0-0--------0------- 
d-------------------------------- 
 
   PM      PM      PM     PM 
d---------------------------------- 
a---------------------------------- 
f-------9-------9-------9-----9--7- 
c-------7-------7-------7-----7--5- 
g--0-0-----0-0-----0-0-----0------- 
d---------------------------------- 
 
 
   PM      PM      PM     PM 
d------------------------------------- 
a------------------------------------- 
f-------9-------9-------9-----9--7-\/- 
c-------7-------7-------7-----7--5-\/- 
g--0-0-----0-0-----0-0-----0---------- 
d------------------------------------- 
 
solo- 
d------------------------------------------ 
a--5h6p5---5-----5h6p5-----5-6---5--------- 
f--------7-------------7-------7---5-7---5- 
c--------------------------------------9--- 
g------------------------------------------ 
d------------------------------------------ 
        
d--------------------------------------------------- 
a--------------------------------------------------- 
f--7h8p7p5-7---7h8p7p5---7-8-5-7---5---------------- 
c--------------------------------8----7-8-----5-7-9- 
g-----------------------------------------7-8------- 
d--------------------------------------------------- 
 
d------------------------5-------5-7-8--5--5/17- 
a------------5-----5-6-8---5-6-8---------------- 
f--------5-7---5-7------------------------------ 
c--5-7-9---------------------------------------- 
g----------------------------------------------- 
d----------------------------------------------- 
 
more to come... 
 
 
 
chorus- x8 
   PM         PM        PM          8th time only 
d--------------------------------|---- 
a--------------------------------|---- 
f-------9--7-------3--5-----5--7-|-7~- 
c-------7--7-------3--3-----5--5-|-5~- 
g--0-0--------0-0--------0-------|---- 
d--------------------------------|---- 
 
 
thanks to scott morris for the beginning of the solo 
 
questions, commetns email: 
[email protected] 
 

	  

Search Paypal
auto scroll beats size up size down change color hide chords drawings
tab show chords e-chords YouTube Clip e-chords hide all tabs e-chords go to top tab