Motley Crue

God Bless The Childeren Of The Beast (ver. 3) Tab

Motley Crue

Difficulty: nolevelnolevel

tuner correct add songbook print version text version save to e-mail
chordsukulelecavacokeyboardtabbassdrumsharmonicsflute Guitar Pro
close

there isn't a video lesson for this song

request
chords

God Bless The Childeren Of The Beast (ver. 3)

  		/-slide down 
h- hammer on 
p- pull off 
^- let ring 
 
play this in standard tuning 
 
gtr 1 plays continuosly 
 
gtr 1 
-------------0-----------------------0------------------------0--------------- 
-------0--------0-----5--------0--------0-----5---------0--------0-----0------ 
----5-----5--------5--------5-----5--------5---------4-----4--------4--------- 
-7-----------------------7------------------------5--------------------------- 
------------------------------------------------------------------------------ 
------------------------------------------------------------------------------ 
  
-------------0------------------------0-----------------------0---------------- 
-------0--------0-----0---------0--------0-----0--------0--------0-----0------- 
----4-----4--------4---------2-----2--------2--------2-----2--------2---------- 
-5------------------------3-----------------------3---------------------------- 
------------------------------------------------------------------------------- 
------------------------------------------------------------------------------- 
        
 at the end finish with this when they say "god bless..." 
-------------0------------------------------------|-0-| 
-------0--------0-----0--------0------------0-----|-0-| 
----1-----1--------1--------1-----1/-----4-----4--|-5-| 
-2-----------------------2------------6-----------|-7-| 
--------------------------------------------------|-0-| 
--------------------------------------------------|---| 
 
gtr 2 
--------------------------------------------------------------------------------- 
--------------------------------------------------------------------------------- 
--5-------5-7-4-5---4----------------5-7-4-5---4----------------5-7-4-5---4------ 
------------------7---5-7------5-------------7---5-7-------3------------7---5-7-- 
--------------------------------------------------------------------------------- 
--------------------------------------------------------------------------------- 
 
--------------------------------------------------------------------------------- 
--5---------5-6---5--------------------5-6---5-------------------5-6---5--------- 
----------------7---5-7-4-5-----4----------7---5-7-4-5-----2---------7---5-7-4-5- 
--------------------------------------------------------------------------------- 
--------------------------------------------------------------------------------- 
--------------------------------------------------------------------------------- 
 
------------------------------------------------------------------------------- 
-----------------------------------------------------------15------17-15---18-- 
--------------5-4---10-9---12-10----14-12---16-14---17-16------17-------------- 
-2-3-2---6-3------------------------------------------------------------------- 
------------------------------------------------------------------------------- 
------------------------------------------------------------------------------- 
 
---------------------------------------------------------------------------15----17- 
----------------6-5-----10-9----12-10-----13-12----15-13----17-15---18-17-----18---- 
--1-2-1---4-2----------------------------------------------------------------------- 
------------------------------------------------------------------------------------ 
------------------------------------------------------------------------------------ 
------------------------------------------------------------------------------------ 
 
---------------------------------------------------- 
-17h18p17h18p17h18p17h18-17h18p17h18p17h18p17h18---- 
---------------------------------------------------- 
---------------------------------------------------- 
---------------------------------------------------- 
---------------------------------------------------- 
 
------------------------------------------------ 
----15-17-15-------------------15-17-15--13--12- 
-17----------17-16----------17------------------ 
--------------------15-------------------------- 
------------------------------------------------ 
------------------------------------------------ 
 
--15h17p15h17p15h17p15h17--15h17p15h17p15h17p15h17- 
---------------------------------------------------- 
---------------------------------------------------- 
---------------------------------------------------- 
---------------------------------------------------- 
---------------------------------------------------- 
 
--------15------------------------15-13--12--10- 
--17-18----18--17--15-------17-18--------------- 
-----------------------14----------------------- 
------------------------------------------------ 
------------------------------------------------ 
------------------------------------------------ 
 
-----------------------------------12^-------------12--12------------12/-17^- 
------------12----13------------13-----------9--12--------13------13--------- 
-----9--13-----------14------14------------9-----------------14-------------- 
--9---------------------14--------------------------------------------------- 
----------------------------------------------------------------------------- 
----------------------------------------------------------------------------- 
 
----------------------------------------------------10-----------10/-15^- 
--12-----------12--15^-----10-------------10--13^------12-----12--------- 
-----12------12---------------10-------10-----------------12------------- 
--------12-----------------------10-------------------------------------- 
------------------------------------------------------------------------- 
------------------------------------------------------------------------- 
 
--8------------8/--13^- 
----10------10--------- 
-------10-------------- 
----------------------- 
----------------------- 
----------------------- 
 
-----------------------------------------------12^-----12---------12-------12------- 
--12----------12------------13-------------13-------------12---------12-------13---- 
-----13----------13------------14-------14---------------------------------------14- 
----------------------------------14--------------------------14--------14---------- 
---------14----------14------------------------------------------------------------- 
------------------------------------------------------------------------------------ 
 
-----12/--17^---------------------------------------------------- 
--13------------12-------------12--15^----10------------10---13^- 
-------------------12-------12---------------10------10---------- 
----------------------12------------------------10--------------- 
----------------------------------------------------------------- 
----------------------------------------------------------------- 
 
--10-------------10/--15^-----8-------------8/--13^- 
-----12------12-----------------10-------10--------- 
--------12-------------------------10--------------- 
---------------------------------------------------- 
---------------------------------------------------- 
---------------------------------------------------- 
 
          god bless the childeren of the beast       
------------------------------------------------------- 
--12-----------12-------------------------------------- 
-------13---------13-----------13-------13------------- 
-----------14--------14-14--------14-------14------14^- 
-------------------------------------14--------14------ 
------------------------------------------------------- 
 
         __ 
       +/ /+ 
      +/ /+ 
     +/_/+ 
      |_| 
      |_| 
      |_| 
      |_|   Any questions e-mail me at [email protected] 
      |_| 
      |_| 
      |_| 
  /\  |_| 
 /  | |_|  _ 
 \   \|_| ( \ 
  |      \/ / 
  |  {===} | 
 /   {===} | 
|     ___o o\  
 \   |---|o  ) 
  \_________/ 
	  

Search Paypal
auto scroll beats size up size down change color hide chords drawings
tab show chords e-chords YouTube Clip e-chords hide all tabs e-chords go to top tab

share with facebook