Motley Crue

Bitter Pill Tab

Motley Crue

Difficulty: nolevelnolevel

tuner correct add songbook print version text version save to e-mail
chordsukulelecavacokeyboardtabbassdrumsharmonicsflute Guitar Pro
close

there isn't a video lesson for this song

request
chords

Bitter Pill

Year: 1998 - Album: Motley Crue - Greatest Hits

  		drop d tuning- DGCFAD 
 
intro 
d-------------------------------2-3- 
g-----2-3-----3-2------3-0---------- 
c----------------------------7------ 
f--7-------7--------4--------5------ 
a--5-------4--------2--------------- 
d----------------------------------- 
 
verse-x5 
d---------------------------------------------- 
g---------------------------------------------- 
c---------------------------------------------- 
f--6---------6---------6----7----9--6---7---9-- 
a----7777777---7777777---77---77--7--77--77--7- 
d----0000000---0000000---00---00--0--00--00--0- 
 
pre chorus- 
d-------------------------------------------------------- 
g-------------------------------------------------------- 
c-------------------------------------------------------- 
f--6-6666666666666-7-7777777777777-6-6666666666666--6--7- 
a--4-4444444444444-5-5555555555555-4-4444444444444--4--5- 
d-------------------------------------------------------- 
 
chorus-x4 
gtr 1 
d---------------------------- 
g---------------------------- 
c---------------------------- 
f----4-2----4-2----4-2--0--0- 
a--0----------------------4-- 
d---------4------2----------- 
 
gtr 2 
d------------------------- 
g------------------------- 
c-----6-----7--6--7--6--7- 
f--7--6--4--7--6--7--6--7- 
a--7--4--4--5--4--5--4--5- 
d--5-----2---------------- 
 
d-------------------------------2-3- 
g-----2-3-----3-2------3-0---------- 
c----------------------------7------ 
f--7-------7--------4--------5------ 
a--5-------4--------2--------------- 
d----------------------------------- 
 
verse-x5 
d---------------------------------------------- 
g---------------------------------------------- 
c---------------------------------------------- 
f--6---------6---------6----7----9--6---7---9-- 
a----7777777---7777777---77---77--7--77--77--7- 
d----0000000---0000000---00---00--0--00--00--0- 
 
pre chorus 
d-------------------------------------------------------- 
g-------------------------------------------------------- 
c-------------------------------------------------------- 
f--6-6666666666666-7-7777777777777-6-6666666666666--6--7- 
a--4-4444444444444-5-5555555555555-4-4444444444444--4--5- 
d-------------------------------------------------------- 
 
chorus-x4 
gtr 1 
d---------------------------- 
g---------------------------- 
c---------------------------- 
f----4-2----4-2----4-2--0--0- 
a--0----------------------4-- 
d---------4------2----------- 
 
gtr 2 
d------------------------- 
g------------------------- 
c-----6-----7--6--7--6--7- 
f--7--6--4--7--6--7--6--7- 
a--7--4--4--5--4--5--4--5- 
d--5-----2---------------- 
 
x2 
-------------------------------2-3- 
g-----2-3-----3-2------3-0--------- 
c----------------------------7----- 
f--7-------7--------4--------5----- 
a--5-------4--------2-------------- 
d---------------------------------- 
 
solo 
 
x2, palm mute 
--------------------- 
g-------------------- 
c--------6666-------- 
f--7777--6666--4444-- 
a--7777--4444--4444-- 
d--5555--------2222-- 
 
chorus-x6 
gtr 1 
d---------------------------- 
g---------------------------- 
c---------------------------- 
f----4-2----4-2----4-2--0--0- 
a--0----------------------4-- 
d---------4------2----------- 
 
gtr 2 
d------------------------- 
g------------------------- 
c-----6-----7--6--7--6--7- 
f--7--6--4--7--6--7--6--7- 
a--7--4--4--5--4--5--4--5- 
d--5-----2---------------- 
 
solo riff 
 
outro 
d------------- 
g------------- 
c-----------6- 
f--2--4--7--6- 
a--2--4--7--4- 
d--0--2--5---- 
 
        __ 
      =/ / 
     =/ / 
    =/_/             
     |_\            
     |_|           
     |_|    any questions or correction   
     |_|   email me, [email protected] -Crue 
     |_| 
     |_| 
     |_|       
  /\ |_| 
 / | |_|  _ 
 \  \|_| ( \  
  |     \/ / 
  | {===} |  
 /  {===}/|    
 |   ___/oo\    
 \  |---| o )   
  \________/ 
 

	  

Search Paypal
auto scroll beats size up size down change color hide chords drawings
tab show chords e-chords YouTube Clip e-chords hide all tabs e-chords go to top tab

share with facebook