Mother Mother

Get Out The Way

Mother Mother

tabs nolevel nolevel

by  ALEFFEDERICO

save to print version add songbook text version e-mail correct tuner
chordsukulelecavacokeyboardtabbassdrumsharmonicaflute Guitar Pro
close

there isn't a video lesson for this song

chords

Get Out The Way

	  		Chorus/Intro: 

E|--------------------------------------------------| 
B|--------------------------------------------------| 
G|--------------------------------------------------| 
D|--5-----------5-----------5-----------5-----------| 
A|-----7--6--7-----7--6--7-----7--6--7-----7--6--7--| 
E|--------------------------------------------------| 

E|--------------------------------------------------| 
B|--------------------------------------------------| 
G|--------------------------------------------------| 
D|--------------------------------------------------| 
A|--9-----6--7--9-----6--7--9-----6--7--9--9--9--9--| 
E|-----7-----------7-----------7--------------------| 

E|--------------------------------------------------| 
B|--------------------------------------------------| 
G|--------------------------------------------------| 
D|--7-----4--5--7-----4--5--7-----4--5--7-----4-----| 
A|--------------------------------------------------| 
E|-----5-----------5-----------5-----------5--------| 

E|--------------------------------------------------| 
B|--------------------------------------------------| 
G|--------------------------------------------------| 
D|--5-----------5-----------5-----------5-----------| 
A|-----7--6--7-----7--6--7-----7--6--7-----7--6--7--| 
E|--------------------------------------------------| 

Pre-Chorus 

I'll write the perfect song for the perfect day.. 

E|--------------------------|--------------------------| 
B|--------------------------|--------------------------| 
G|--------------------------|--------------------------| 
D|--------------------------|--------------------------| 
A|--------------------------|--2-----2-----2-----2--1--| 
E|--0-----0-----0-----0-----|--------------------------| 

E|--------------------------|-----------------------| 
B|--------------------------|-----------------------| 
G|--------------------------|-----------------------| 
D|--------------------------|--------2-----------2--| 
A|--0-----0-----0-----0-----|-----------------------| 
E|--------------------------|--0-----------0--------| 


E|--------------------------------------------------------------| 
B|--12--12b12--10--12--12b12--10--12--12b12--10--12--12b12--10--| 
G|--------------------------------------------------------------| 
D|--------------------------------------------------------------| 
A|--------------------------------------------------------------| 
E|--------------------------------------------------------------| 

E|------------------------------| 
B|--12--------------------------| 
G|------11--11------------------| 
D|------------------------------| 
A|------------------------------| 
E|------------------------------| 

E|--------------------------------------------------------------| 
B|--12--12b12--10--12--12b12--10--12--12b12--10--12--12b12--10--| 
G|--------------------------------------------------------------| 
D|--------------------------------------------------------------| 
A|--------------------------------------------------------------| 
E|--------------------------------------------------------------| 

E|------12--12-----------------| 
B|--12-------------------------| 
G|-----------------------------| 
D|-----------------------------| 
A|-----------------------------| 
E|-----------------------------| 
		  

See also:

tabs Alexisonfire - Born And Raised tabs Mother Mother - Get Out The Way tabs 3 Inches Of Blood - Dark Messenger tabs Mother Mother - Business Man tabs 3 Inches Of Blood - Lord Of The Storm Upon The Boiling Sea 2 tabs Mother Mother - Bit By Bit
e-chords

Other versions:

tabs Mother Mother - Get Out The Way
auto scroll beats size up size down change color hide chords drawings
tab show chords e-chords YouTube Clip e-chords hide all tabs e-chords go to top tab

share with facebook