Mother Mother

Baby Boy

Mother Mother

tabs nolevel nolevel

by  CARLLUZ

save to print version add songbook text version e-mail correct tuner
chordsukulelecavacokeyboardtabbassdrumsharmonicaflute Guitar Pro
close

there isn't a video lesson for this song

chords

Baby Boy

	  		
INTRO/verse 1 
    v                                                          
e|--0--|---------------------|----------------|--------------|   
B|--3--|--3--3------3--------|----------3-----|--------------|   
G|--2--|--2--2------2--------|----------------|--------2-----|   
D|--0--|---------------------|-------3-----3--|-----------0--|   
A|--0--|---------0-----0--0--|--0h1-----------|-----0--------|   
D|--0--|---------0-----0-----|----------------|--3-----------|   
 1.                                                              
 2. The de-vil is at my door, and I know what he came here for   
                                                                 
e|-----|---------------|------------|-----------------------|    
B|--1--|--1------------|------------|-----------------------|    
G|--0--|---------------|---------3--|--3--3-----------------|    
D|--2--|-----2---------|---------0--|--0--0-----------------|    
A|--3--|--------3------|------5-----|-----------------------|    
D|-----|-----------0/--|--/5--------|--------0--5--0--3--0--|    
 1.                                                              
 2. the kind of fun that I ... him enter to make some more.      
                                                                 
e|---------------|---------------------------|                   
B|-----------3---|---3---3-------3-----------|                   
G|-----------2---|---2---2-------2-----------|                   
D|-------0---0---|---------------------------|                   
A|---0---0-------|-----------0-------0---0---|                   
D|---0-----------|-----------0-------0-------|                   
 1.                                                              
 2. Fire,           it burns my skin, but                         
                                                                 
e|---------------------|-----------------------|                 
B|-------------3-------|-------------10--------|                 
G|---------------------|-----------------------|                 
D|---------3-------3---|--------10--------10---|                 
A|---0h1---------------|---/8------------------|                 
D|---------------------|-----------------------|                 
 1.                                                              
 2. I   still want to     play with it.    Like a,               
                                                                 
e|---------------|----------------------------|                  
B|---1---1---1---|---1---3---1---1---1--------|                  
G|---0---0---0---|---0---0---0---0---0--------|                  
D|---2---2---2---|---2---2---2---2---2--------|                  
A|---3-----------|-----------3----------------|                  
D|---------------|-----------------------0/---|                  
 1.                                                              
 2.      shark fin, in   the swim.      I                        
                                                                 
                 ***                                             
e|----------------|-------------------|                          
B|----------------|-------------------|                          
G|------------3---|---3---3---3---3---|                          
D|------------0---|---0---0---0---0---|                          
A|--------5-------|-----------5---5---|                          
D|---/5-----------|-----------5---5---| 
 1. 
 2. cut myself,  and jump on in.... 
*** Listen to the song for how these rhythms go 

Chorus 1 
e|--------------------------------------------------|            
B|--------------------------------------------------|            
G|--------------------------------------------------|            
D|--------------------------------------------------|            
A|--------------------------------------------------|            
D|--0--0--0--0--0--0--0--0--8--8--8--8--3--3--3--3--|            
 1.    (Oh oh's)                                                 
 2.    Baby     boy,    baby     brother,                        
                                                                 
e|----------------------------------------------------------|    
B|----------------------------------------------------------|    
G|----------------------------------------------------------|    
D|----------------------------------------------------------|    
A|----------------------------------------------------------|    
D|--10--10--10--10--10--10--10--10--5--5--5--5--5--5--5--5--| 
 1.      (Oh oh's) 
 2.      we're   losing    you,        to   the  gutter. 

  let ring                +   
e|------0--|--(0)--|------12--|--(12)--|                  
B|------3--|--(3)--|------12--|--(12)--|                  
G|------2--|--(2)--|------12--|--(12)--|                  
D|--0---0--|--(0)--|--0-------|--(0)---|                  
A|--0------|--(0)--|--0-------|--(0)---|                  
D|--0------|--(0)--|--0-------|--(0)---| 

verse 2 
    v                                                          
e|--0--|---------------------|----------------|--------------|   
B|--3--|--3--3------3--------|----------3-----|--------------|   
G|--2--|--2--2------2--------|----------------|--------2-----|   
D|--0--|---------------------|-------3-----3--|-----------0--|   
A|--0--|---------0-----0--0--|--0h1-----------|-----0--------|   
D|--0--|---------0-----0-----|----------------|--3-----------|   
 1. A wo-man, is at my door, ... bad it's my best friend's girl  
                                                                 
e|-----|---------------|------------|-----------------------|    
B|--1--|--1------------|------------|-----------------------|    
G|--0--|---------------|---------3--|--3--3-----------------|    
D|--2--|-----2---------|---------0--|--0--0-----------------|    
A|--3--|--------3------|------5-----|-----------------------|    
D|-----|-----------0/--|--/5--------|--------0--5--0--3--0--|    
 1. cookin' up ... I'm dumb enough to ... the shores, yeah 
e|---------------|---------------------------|                   
B|-----------3---|---3---3-------3-----------|                   
G|-----------2---|---2---2-------2-----------|                   
D|-------0---0---|---------------------------|                   
A|---0---0-------|-----------0-------0---0---|                   
D|---0-----------|-----------0-------0-------|                   
 1.     There's a  red   light   up   ahead,                     
                                                                 
e|---------------------|-----------------------|                 
B|-------------3-------|-------------10--------|                 
G|---------------------|-----------------------|                 
D|---------3-------3---|--------10--------10---|                 
A|---0h1---------------|---/8------------------|                 
D|---------------------|-----------------------|                 
 1. drive my car,          into   it.    I'm a             
                                                                 
e|---------------|----------------------------|                  
B|---1---1---1---|---1---3---1---1---1--------|                  
G|---0---0---0---|---0---0---0---0---0--------|                  
D|---2---2---2---|---2---2---2---2---2--------|                  
A|---3-----------|-----------3----------------|                  
D|---------------|-----------------------0/---|                  
 1.  little kid with a big death wish.   I                       
                 ***                                  
e|----------------|-------------------| 
B|----------------|-------------------| 
G|------------3---|---3---3---3---3---| 
D|------------0---|---0---0---0---0---| 
A|--------5-------|-----------5---5---| 
D|---/5-----------|-----------5---5---| 
 1. bite the lips,     the lips that kiss... 
*** Listen to the song for how these rhythms go 

Chorus 2 
e|--------------------------------------------------|            
B|--------------------------------------------------|            
G|--------------------------------------------------|            
D|--------------------------------------------------|            
A|--------------------------------------------------|            
D|--0--0--0--0--0--0--0--0--8--8--8--8--3--3--3--3--|            
 1.    (Oh oh's)                                                 
 2.    Baby     boy,    baby     brother,                        
 3.    Baby     boy,    baby     brother,                        
e|----------------------------------------------------------|    
B|----------------------------------------------------------|    
G|----------------------------------------------------------|    
D|----------------------------------------------------------|    
A|----------------------------------------------------------|    
D|--10--10--10--10--10--10--10--10--5--5--5--5--5--5--5--5--| 
 1.      (Oh oh's)   
 2.      we're   losing    you,        to   the  gutter. 
 3.      we're   losing    you,    is     it      forever? 
                                                      
e|--------------------------------------------------|            
B|--------------------------------------------------|            
G|--------------------------------------------------|            
D|--0--0--0--0--0--0--0--0--8--8--8--8--3--3--3--3--|            
A|--0--0--0--0--0--0--0--0--8--8--8--8--3--3--3--3--|            
D|--0--0--0--0--0--0--0--0--8--8--8--8--3--3--3--3--|            
 1.    Baby     boy,    baby     brother,                        
 2.    Baby     boy,    baby     brother,                        
e|----------------------------------------------------------|    
B|----------------------------------------------------------|    
G|----------------------------------------------------------|    
D|--10--10--10--10--10--10--10--10--5--5--5--5--5--5--5--5--|    
A|--10--10--10--10--10--10--10--10--5--5--5--5--5--5--5--5--|    
D|--10--10--10--10--10--10--10--10--5--5--5--5--5--5--5--5--| 
 1.      we're   losing    you,        to   the  gutter. 
 2.      we're   losing    you,    is     it      forever? 


Bridge 
e|--------------------------------------------------|            
B|--3--3--3--3--3--3--3--3--11-11-11-11-6--6--6--6--|            
G|--2--2--2--2--2--2--2--2--10-10-10-10-5--5--5--5--|            
D|--0--0--0--0--0--0--0--0--8--8--8--8--3--3--3--3--|            
A|--0--0--0--0--0--0--0--0--8--8--8--8--3--3--3--3--|            
D|--0--0--0--0--0--0--0--0--8--8--8--8--3--3--3--3--|            
                                                                 
e|--------------------------------------------------|            
B|--1--1--1--1--1--1--1--1--8--8--8--8--8--8--8--8--|            
G|--0--0--0--0--0--0--0--0--7--7--7--7--7--7--7--7--|            
D|--2--2--2--2--2--2--2--2--5--5--5--5--5--5--5--5--|            
A|--3--3--3--3--3--3--3--3--5--5--5--5--5--5--5--5--|            
D|--------------------------5--5--5--5--5--5--5--5--| 

Outro 
Start with 4 bars on the D chord (0-0-0-2-3-0); the rhythm's in the song. 
    v 
e|--0--|---------------------|----------------|--------------| 
B|--3--|--3--3------3--------|----------3-----|--------------| 
G|--2--|--2--2------2--------|----------------|--------2-----| 
D|--0--|---------------------|-------3-----3--|-----------0--| 
A|--0--|---------0-----0--0--|--0h1-----------|-----0--------| 
D|--0--|---------0-----0-----|----------------|--3-----------| 
 1. The de-vil is at my door, and I know what he came here for 

e|-----|---------------|----------------|-------------------| 
B|--1--|--1------------|----------------|-------------------| 
G|--0--|---------------|------------3---|---3---3---3---3---|   Hold Gm 
D|--2--|-----2---------|------------0---|---0---0---0---0---|   to end. 
A|--3--|--------3------|--------5-------|-----------5---5---| 
D|-----|-----------0/--|---/5-----------|-----------5---5---| 
 1. the kind of fun that I ... him enter to make some more.  
		  

Full key step upFull key step up
Half key step upHalf key step up
Half key step downHalf key step down
Full key step downFull key step down
hide glossary

See also:

tabs Alexisonfire - Born And Raised tabs Mother Mother - Get Out The Way tabs 3 Inches Of Blood - Dark Messenger tabs Mother Mother - Business Man tabs 3 Inches Of Blood - Lord Of The Storm Upon The Boiling Sea 2 tabs Mother Mother - Bit By Bit
e-chords

Other versions:

tabs Mother Mother - Baby Boy
auto scroll beats size up size down change color hide chords drawings
tab show chords e-chords YouTube Clip e-chords hide all tabs e-chords go to top tab

share with facebook