Morbil Angel

Desolate Ways

Morbil Angel

tabs

by  PANCHOCHO

save to print version add songbook text version e-mail correct tuner
chordsukulelecavacokeyboardtabbassdrumsharmonicaflute Guitar Pro
close

there isn't a video lesson for this song

chords

Desolate Ways

	  		Morbid Angel 
Desolated ways 
Blessed are the sick                                                                        
 
                                                            
D#||---2----------2--------2--|--0----------0--------0---||---2----------2--------2--| 
A#||--------0--------0--------|-------0--------0---------||--------0--------0--------| 
F#||*-------------------------|-------------------------*||*-------------------------| 
C#||*--2-------2--------2-----|--2-------2--------2-----*||*--2-------2--------2-----| 
G#||--------------------------|--------------------------||--------------------------| 
D#||--------------------------|--------------------------||--------------------------| 
                                                                               
--0-------------0--------|--3----------3--------3--|--0----------0-----------| 
-------------0-----0-----|-------0--------0--------|-------0--------0--------| 
-------0--------------0--|-------------------------|-------------------0-----| 
--2-------2--------------|-------------------------|-------------------------| 
-------------------------|--3-------3--------3-----|--3-------3-----------3--| 
-------------------------|-------------------------|-------------------------| 
                                                                               
--5----------5-----------|--2-------------2--------|--3----------3-----------| 
-------0--------0--------|-------------0-----0-----|-------0--------0--------| 
-------------------0-----|-------0--------------0--|-------------------0-----| 
-------------------------|-------------------------|----------------------0--| 
--5-------5-----------5--|--2-------2--------------|--3-------3--------------| 
-------------------------|-------------------------|-------------------------| 
                                                                             
--0----------------||---2----------2--------2--|--0----------0--------0---||---2----------2--------2--| 
--1----------------||--------0--------0--------|-------0--------0---------||--------0--------0--------| 
--0----------------||*-------------------------|-------------------------*||*-------------------------| 
--2----------------||*--2-------2--------2-----|--2-------2--------2-----*||*--2-------2--------2-----| 
--3----------------||--------------------------|--------------------------||--------------------------| 
-------------------||--------------------------|--------------------------||--------------------------| 
                                                                               
--0-------------0--------|--3----------3--------3--|--0----------0-----------| 
-------------0-----0-----|-------0--------0--------|-------0--------0--------| 
-------0--------------0--|-------------------------|-------------------0-----| 
--2-------2--------------|-------------------------|-------------------------| 
-------------------------|--3-------3--------3-----|--3-------3-----------3--| 
-------------------------|-------------------------|-------------------------| 
                                                                               
--5----------5-----------|--2-------------2--------|--3----------3-----------| 
-------0--------0--------|-------------0-----0-----|-------0--------0--------| 
-------------------0-----|-------0--------------0--|-------------------0-----| 
-------------------------|-------------------------|----------------------0--| 
--5-------5-----------5--|--2-------2--------------|--3-------3--------------| 
-------------------------|-------------------------|-------------------------| 
                                                                       
--0----------------|--0----------5----3----|--0----------3-----2-----| 
--1----------------|-------0---------------|-------0--------0-----0--| 
--0----------------|-----------------------|-------------------------| 
--2----------------|-----------------------|-------------------------| 
--3----------------|--7-------7--5----3----|--2-------0--3-----2-----| 
-------------------|-----------------------|-------------------------| 
                                                                           
--0----------3----2----|--0----------3-----2-----|--0----------5----3----| 
-------0---------------|-------0--------0-----0--|-------0---------------| 
-----------------------|-------------------------|-----------------------| 
-----------------------|-------------------------|-----------------------| 
--3-------0--3----2----|--3-------0--------------|----------0--5----3----| 
-----------------------|-------------3-----2-----|--0--------------------| 
                                                               
--0----------3-----2-----|--0----------3----2----|--0----0-----| 
-------0--------0-----0--|-------0---------------|--1-------0--| 
-------------------------|-----------------------|--0----------| 
-------------------------|-----------------------|--2----------| 
--2-------0--3-----2-----|--3-------0--3----2----|--3----------| 
-------------------------|-----------------------|-------------| 
 
 
|---3----------3--------3--|--5----------5-----------|--2-------------2--------|--0-----------------| 
|--------0--------0--------|-------0--------0--------|-------------0-----0-----|--1-----------------| 
|*-------------------------|-------------------0-----|-------0--------------0--|--0----------------*| 
|*-------------------------|-------------------------|-------------------------|--2----------------*| 
|---3-------3--------3-----|--5-------5-----------5--|--2-------2--------------|--3-----------------| 
|--------------------------|-------------------------|-------------------------|--------------------| 
      
                                                                                 
|---3----------3--------3--|--5----------5-----------|--2-------------2--------| 
|--------0--------0--------|-------0--------0--------|-------------0-----0-----| 
|*-------------------------|-------------------0-----|-------0--------------0--| 
|*-------------------------|-------------------------|-------------------------| 
|---3-------3--------3-----|--5-------5-----------5--|--2-------2--------------| 
|--------------------------|-------------------------|-------------------------| 
 
.                                                                       
--0-----------------||-------------0-----------|--------------------------| 
--1-----------------||----------------0--------|-------0-----1h0-------0--| 
--0----------------*||-------0-----------0-----|-----------------0--------| 
--2----------------*||--2-------2-----------2--|--0-------0---------0-----| 
--3-----------------||-------------------------|--------------------------| 
--------------------||-------------------------|--------------------------| 
                                                                          
------------0---------|-------------0-----------|-------------0-----------| 
--0--------------0----|--0-------------3-----3--|--0-------------0--------| 
-------0--------------|-------0-----------0-----|-------0-----------0-----| 
----------------------|-------------------------|--2-------2-----------2--| 
--3-------------------|--2-------2--------------|-------------------------| 
----------------------|-------------------------|-------------------------| 
                                                                             
--------------------------|----------------------|-------------0-----------| 
-------0-----1h0-------0--|--0---------0---------|--0-------------3--------| 
-----------------0--------|-------0---------0----|-------0-----------0-----| 
--0-------0---------0-----|----------------------|----------------------0--| 
--------------------------|--3-------------------|--2-------2--------------| 
--------------------------|----------------------|-------------------------| 
                                                         
|---0----0--------0--------|--0----0--------0---------||---0----0--------0--------| 
|---1-------1--------1-----|--3-------3--------3------||---1-------1--------1-----| 
|*--0-------------------0--|--0-------------------0--*||*--0-------------------0--| 
|*--2----------2-----------|--4----------4-----------*||*--2----------2-----------| 
|---3----------------------|--5-----------------------||---3---------------------- 
|--------------------------|--------------------------||--------------------------| 
                                                                 
--0----0-----------0-----|-------0--------------0--|----------|| 
--3-------3-----------3--|----------5--------5-----|----------|| 
--0----------0-----------|-------------0-----------|----------|| 
--4-------------4--------|----------------6--------|----------|| 
--5----------------------|----7--------------------|----------|| 
-------------------------|-------------------------|----------|| 
 
   
 
 
 
 
 
 
 
Panchocho Gilmour 

		  

See also:

tabs Twisted Syster - Were not gonna take tabs Slipknot - Duality tabs Slipknot - Duality(ver 2) tabs Alice Cooper - No More Mr. Nice Guy tabs Marilyn Manson - Sweet Dreams (complete) tabs Slipknot - Vermilion (Part 2)
e-chords

Other versions:

tabs Morbil Angel - Desolate Ways
auto scroll beats size up size down change color hide chords drawings
tab show chords e-chords YouTube Clip e-chords hide all tabs e-chords go to top tab

share