Morbid Saint

Assassin

Morbid Saint

tabs nolevel nolevel

by  VSWORLD

save to print version add songbook text version e-mail correct tuner
chordsukulelecavacokeyboardtabbassdrumsharmonicaflute Guitar Pro
close

there isn't a video lesson for this song

chords

Assassin

	  		Morbid Saint - Album: Spectrum Of Death 

Afinação: D G C F A D 

Riff 1 x7 

 
D|---------------------------------------------| 
A|---------------------------------------------| 
F|---------------------------------------------| 
C|--14-14---15-15------------------------------| 
G|--12-12---13-13-----000008007000500003-------| 
D|---------------------------------------------| 
 

Riff 2 x12 

 
D|-----------------------------------------------------------| 
A|-----------------------------------------------------------| 
F|-----------------------------------------------------------| 
C|-----------------------------------------------------------| 
G|-----------------------------------------------------------| 
D|-00008000700005000030000800070005000300008000700050003-----| 
 

Riff 3 x6 

 
D|---------------------------------| 
A|---------------------------------| 
F|---------------------------------| 
C|---------------------9-10-9------| 
G|-22222222222---------7-8--7------| 
D|-00000000000---------------------| 
 

Riff 4 x4 

 
D|--------------------------------| 
A|--------------------------------| 
F|--------------------------------| 
C|--------------------------9-10--| 
G|-----888888877777755555---7-8---| 
D|--------------------------------| 
 

Riff 5 x6 

 
D|------------------------------------------------------| 
A|------------------------------------------------------| 
F|------------------------------------------------------| 
C|------------------------------------------------------| 
G|---------------4-5------------5-6--------7-8------4-5-| 
D|-000000000-----2-3--0000000---3-4-000000-5-6-0000-2-3-| 
 

Riff 6 

 
D|----------------------------------------| 
A|----------------------------------------| 
F|----------------------------------------| 
C|----------------------------------------| 
G|----------------7-8-7----10-10h11h10h11-| 
D|-0000000000----00-00-0--0---------------| 
 

Riff 6 Alt Ending 

D|-----------------------------------------| 
A|-----------------------------------------| 
F|-----------------------------------------| 
C|--------------------------9h10p9h10p9h10-| 
G|----------------7-8-7--------------------| 
D|-0000000000----00-00-0--0----------------| 
		  

Full key step upFull key step up
Half key step upHalf key step up
Half key step downHalf key step down
Full key step downFull key step down
hide glossary

See also:

tabs Deep Purple - Sometimes a Feel Like Screaming tabs Deep Purple - Mistreated tabs Deep Purple - Smoke on the Water (ver. 2) tabs Ira! - Vitrine Viva tabs Doa - Sexyest Girl tabs Deep Purple - Ted The Mechanic
e-chords

Other versions:

tabs Muse - Assassin tabs Morbid Saint - Assassin tabs Misc Computer Games - Assassin's Creed Revelations Theme tabs Insane Clown Posse - Assassins (ver. 1) tabs Insane Clown Posse - Assassins (ver. 2) tabs Games - Assassins Creed - Ezio's Family
auto scroll beats size up size down change color hide chords drawings
tab show chords e-chords YouTube Clip e-chords hide all tabs e-chords go to top tab

share with facebook