Mitchell Tenpenny

Alcohol You Later

Mitchell Tenpenny

tabs nolevel nolevel

by  EDUCASTILHO

save to print version add songbook text version e-mail correct tuner
chordsukulelecavacokeyboardtabbassdrumsharmonicaflute Guitar Pro
close

there isn't a video lesson for this song

chords

Alcohol You Later

	  		Solo 

e|-----------------5p4p2p0--------------------------------------------------------| 
B|------4---5--2h0----------5--7b---12---14--14\---5---7---7b---/12--------12-14--| 
G|-2h4---------------------------------------------------------------13-----------| 
D|--------------------------------------------------------------------------------| 
A|--------------------------------------------------------------------------------| 
E|--------------------------------------------------------------------------------| 

e|-12--14b--12-------12---12\------------------------------------------------| 
B|---------------14----------------------------------------------------------| 
G|---------------------------------------------------------------------------| 
D|---------------------------------------------------------------------------| 
A|---------------------------------------------------------------------------| 
E|---------------------------------------------------------------------------| 


************************************ 

| h   Hammer-on 
| p   Pull-off 
| b   Bend 
| /   Slide up 
| \   Slide down 

************************************ 
		  

See also:

tabs Deep Purple - Deep Purple - Smoke On The Water tabs Albert Hammond Jr - Miss Myrtle tabs Deep Purple - The Unwritten Law tabs Deep Purple - Pictures of Home tabs Deep Purple - Space Truckin tabs Deep Purple - Rat Bat Blues
e-chords

Other versions:

tabs Mitchell Tenpenny - Alcohol You Later
auto scroll beats size up size down change color hide chords drawings
tab show chords e-chords YouTube Clip e-chords hide all tabs e-chords go to top tab

share with facebook