Miss May I

Hey Mister

Miss May I

tabs Easy easy

by  EDUCASTILHO

save to print version add songbook text version e-mail correct tuner
chordsukulelecavacokeyboardtabbassdrumsharmonicaflute Guitar Pro
close

there isn't a video lesson for this song

chords

Hey Mister

	  		

Tuning:  A#  F  A#  D#  G  C  



0:00-0:36 (Lead) - Repeated throughout intro. 
|---------------------------------------------------------------------------| 
|---------------------------------------------------------------------------| 
|---------------------------------------------------------------------------| 
|-13-12-0-0-0-0-12-0-0-0-0-0-0-0-0-0-0-0-13-12-0-0-0-0-12-0-0-0-10-10-12-12-| 
|---------------------------------------------------------------------------| 
|---------------------------------------------------------------------------| 

|---------------------------------------------------------------------------| 
|---------------------------------------------------------------------------| 
|---------------------------------------------------------------------------| 
|-13-12-0-0-0-0-12-0-0-0-0-0-0-0-0-0-0-0-16-0-0-0-0-0-13-12-0-0-12-13-16-0--| 
|---------------------------------------------------------------------------| 
|---------------------------------------------------------------------------| 
   
0:12 (Rhythm) 
|-----------------------------------| 
|-----------------------------------| 
|-----------------------------------| 
|-----------------------------------| 
|-0~~~~~~~~~~~7~~~3~~~~~~~1~~~~~~~--| 
|-0~~~~~~~~~~~7~~~3~~~~~~~1~~~~~~~--| x2 

0:24 (Rhythm) 
|------------------------------------------------------------------------| 
|------------------------------------------------------------------------| 
|------------------------------------------------------------------------| 
|------------------------------------------------------------------------| 
|-0-0-0-0-0-0-0-0-0----------------------------------------------0---0---| 
|-0-0-0-0-0-0-0-0-0----------------------------------------------0---0---|    
  * * * * * * * * *                                              *   * 
                                                 
|--------------------------------------------------------------------------|  
|--------------------------------------------------------------------------| 
|--------------------------------------------------------------------------| 
|--------------------------------------------------------------------------| 
|-0-0-0-0-0-0-0-0-0------------------------------------0---0---0-0-0-0-0-0-| 
|-0-0-0-0-0-0-0-0-0------------------------------------0---0---0-0-0-0-0-0-| 
  * * * * * * * * *                                    *   *   * * * * * *   

|------------------------------------------------------------------------| 
|------------------------------------------------------------------------| 
|------------------------------------------------------------------------| 
|------------------------------------------------------------------------| 
|-0-0-0-0-0-0-0-0-0----------------------------------------------0---0---| 
|-0-0-0-0-0-0-0-0-0----------------------------------------------0---0---|    
  * * * * * * * * *                                              *   *        

|------------------------------------------------------------------------| 
|------------------------------------------------------------------------| 
|------------------------------------------------------------------------| 
|------------------------------------------------------------------------| 
|-0-0-0-0-0-0-0-0-0------------------------------------------------------| 
|-0-0-0-0-0-0-0-0-0---------------------\\\\\\\\\\\pickslide\\\\\\\\\\\\\|    
           
                                                                 
0:36                                                              
|-------------------------------------------------------| 
|-------------------------------------------------------| 
|-14-14-14-14-14-14-14-14-14\12-12-12-12/15-15-15-------| 
|-------------------------------------------------------| 
|-12-12-12-12-12-12-12-12-12\10-10-10-10/13-13-13-------| 
|-------------------------------------------------------| \ 
                                                           x4                            
|-------------------------------------------------------| / 
|-------------------------------------------------------| 
|-14-14-14-14-14-14-14-14-14\10-10-10-10/12-12-12-------| 
|-------------------------------------------------------| 
|-12-12-12-12-12-12-12-12-12\-8--8--8--8/10-10-10-------| 
|-------------------------------------------------------|  
                                                                 

1:00 (Lead) 
|-------------------------------------------------------------------------| 
|-------------------------------------------------------------------------| 
|-------------------------------------------------------------------------| 
|-17h19-0-0-0-0-17h19-0-0-0-0-0-0-0-0-0-0-17h19-0-0-0-0-17h19-0-0-0-0-0-0-| 
|-------------------------------------------------------------------------| 
|-------------------------------------------------------------------------|   \ 
        * * * *       * * * * * * * * * *       * * * *       * * * * * *      \ 
                                                                                x2 
                                                                               /  
|---------------------------------------------------------------------------| / 
|---------------------------------------------------------------------------| 
|---------------------------------------------------------------------------| 
|-17h19-0-0-0-0-17h19-0-0-0-0-0-0-0-0-0-0-17h19-0-0-0-0-15h17-0-0-14h15-0-0-| 
|---------------------------------------------------------------------------| 
|---------------------------------------------------------------------------| 
        * * * *       * * * * * * * * * *       * * * *       * *       * * 

1:00 (Rhythm) 
|------------------------------------------------------------------------| 
|------------------------------------------------------------------------| 
|------------------------------------------------------------------------| 
|------------------------------------------------------------------------| 
|-0-0-0-0-0-0-0-0-0----------------------------------------------0---0-0-| 
|-0-0-0-0-0-0-0-0-0----------------------------------------------0---0-0-|   \ 
  * * * * * * * * *                                              *   * *      \ 
                                                                               x2 
                                                                              /                  
|--------------------------------------------------------------------------| / 
|--------------------------------------------------------------------------| 
|--------------------------------------------------------------------------| 
|--------------------------------------------------------------------------| 
|-0-0-0-0-0-0-0-0-0------------------------------------0---0---0-0-0-0-0-0-| 
|-0-0-0-0-0-0-0-0-0------------------------------------0---0---0-0-0-0-0-0-| 
  * * * * * * * * *                                    *   *   * * * * * * 

Second ending of the rhythm is: 

|--------------------------------------------------------------------------|  
|--------------------------------------------------------------------------| 
|--------------------------------------------------------------------------| 
|--------------------------------------------------------------------------| 
|-0-0-0-0-0-0-0-0-0------------------------------------0~~~0~~~~~~~~~~~~~~-| 
|-0-0-0-0-0-0-0-0-0------------------------------------0~~~0~~~~~~~~~~~~~~-| 
  * * * * * * * * *                                    *   *    


1:12 - Pre-Chorus 
|------------------------------------------------------------------------------------| 
|------------------------------------------------------------------------------------| 
|-10-10-10--------10-10-10----------------10-10-10---------10-10-10------------------| 
|--------------------------------------------------------------------------x-x-x-x---| 
|--8--8--8---------8--8--8--------000-000--8--8--8----------8--8--8--------x-x-x-x---| 
|----------0~~~~~----------0~~~~~-000-000----------0~~~~~~----------0~~~~~-x-x-x-x---| 

1:12 - Pre-Chorus (Harmony)  

|------------------------------------------------------------------------------------| 
|------------------------------------------------------------------------------------| 
|-14-14-14--------14-14-14----------------14-14-14---------14-14-14------------------| 
|--------------------------------------------------------------------------x-x-x-x---| 
|-12-12-12--------12-12-12----------------12-12-12---------12-12-12--------x-x-x-x---| 
|----------0~~~~~----------0~~~~~------------------0~~~~~~----------0~~~~~-x-x-x-x---| 
                                                                                 


1:18 (and 1:30) - Chorus 
|---------------------------------------------------------------------------------------| 
|---------------------------------------------------------------------------------------| 
|-------10-10-10-------12-12-12-12\10-10-10-------10-10-10-------12-12-12-12\10---------| 
|-------------------------------------------------------------------------------<7>~~~--| 
|--------8--8--8-------10-10-10-10\-8--8--8--------8--8--8-------10-10-10-10\-8---------| 
|-0-0-0----------0-0-0----------------------8-8-8----------8-8-8------------------------| 

|-----------------------------------------------------------------------------| 
|-----------------------------------------------------------------------------| 
|-------10-10-10-------12-12-12-12\10-10-10-----------------------------------| 
|-------------------------------------------5h7-0-0-0-0-10-0-0-0-7-0-0-0-5-0--| 
|--------8--8--8-------10-10-10-10\-8--8--8-----------------------------------| 
|-5-5-5----------5-5-5--------------------------------------------------------|... 
                                                * * * *    * * *   * * *   * 

    Ending 1 (1:28): 
   |-----------------------------------| 
   |-----------------------------------| 
   |------------------10---------------| 
   |--0-0-3-0-0-0-0-0------7-----------| 
   |---------------------------10---8--| 
...|-----------------------------------|  
      * *   * * * * *  

1:30 
|---------------------------------------------------------------------------------------| 
|---------------------------------------------------------------------------------------| 
|-------10-10-10-------12-12-12-12\10-10-10-------10-10-10-------12-12-12-12\10-10-10---| 
|---------------------------------------------------------------------------------------| 
|--------8--8--8-------10-10-10-10\-8--8--8--------8--8--8-------10-10-10-10\-8--8--8---| 
|-0-0-0----------0-0-0----------------------8-8-8----------8-8-8------------------------| 

|-----------------------------------------------------------------------------| 
|-----------------------------------------------------------------------------| 
|-------10-10-10-------12-12-12-12\10-10-10-----------------------------------| 
|-------------------------------------------5h7-0-0-0-0-10-0-0-0-7-0-0-0-5-0--| 
|--------8--8--8-------10-10-10-10\-8--8--8-----------------------------------| 
|-5-5-5----------5-5-5--------------------------------------------------------|... 
                                                * * * *    * * *   * * *   * 
               
    Ending 2 (1:40): 
   |-----------------------------------| 
   |-----------------------------------| 
   |-----------------------------------| 
   |--0-0-3-0-0-0-0-0-10---------------| 
   |-----------------------8---7---8---| 
...|-----------------------------------|  


1:18 (and 1:30) - Chorus (Harmony)  
|---------------------------------------------------------------------------------------| 
|---------------------------------------------------------------------------------------| 
|-------14-14-14-------12-12-12-12\10-10-10-------14-14-14-------12-12-12-12\10---------| 
|-------------------------------------------------------------------------------<7>~~~--| 
|-------12-12-12-------10-10-10-10\-8--8--8-------12-12-12-------10-10-10-10\-8---------| 
|-0-0-0----------0-0-0----------------------8-8-8----------8-8-8------------------------| 

|-----------------------------------------------------------------------------| 
|-----------------------------------------------------------------------------| 
|-------14-14-14-------12-12-12-12\10-10-10-----------------------------------| 
|-------------------------------------------5h7-0-0-0-0-10-0-0-0-7-0-0-0-5-0--| 
|-------12-12-12-------10-10-10-10\-8--8--8-----------------------------------| 
|-5-5-5----------5-5-5--------------------------------------------------------|... 
                                                * * * *    * * *   * * *   * 

    Ending 1 (1:28): 
   |-----------------------------------| 
   |-----------------------------------| 
   |------------------10---------------| 
   |--0-0-3-0-0-0-0-0------7-----------| 
   |---------------------------10---8--| 
...|-----------------------------------|  
      * *   * * * * *  

1:30 - Chorus (Harmony)  
|---------------------------------------------------------------------------------------| 
|---------------------------------------------------------------------------------------| 
|-------14-14-14-------12-12-12-12\10-10-10-------14-14-14-------12-12-12-12\10-10-10---| 
|---------------------------------------------------------------------------------------| 
|-------12-12-12-------10-10-10-10\-8--8--8-------12-12-12-------10-10-10-10\-8--8--8---| 
|-0-0-0----------0-0-0----------------------8-8-8----------8-8-8------------------------| 

|-----------------------------------------------------------------------------| 
|-----------------------------------------------------------------------------| 
|-------14-14-14-------12-12-12-12\10-10-10-----------------------------------| 
|-------------------------------------------5h7-0-0-0-0-10-0-0-0-7-0-0-0-5-0--| 
|-------12-12-12-------10-10-10-10\-8--8--8-----------------------------------| 
|-5-5-5----------5-5-5--------------------------------------------------------|... 
                                                * * * *    * * *   * * *   * 
               
    Ending 2 (1:40): 
   |-----------------------------------| 
   |-----------------------------------| 
   |-----------------------------------| 
   |--0-0-3-0-0-0-0-0-10---------------| 
   |-----------------------8---7---8---| 
...|-----------------------------------|  


1:42                         
|----------------------------------------------------------------------| 
|----------------------------------------------------------------------| 
|----------------------------------------------------------------------| 
|----------------------------------------------------------------------| 
|-0~~~000~000~~~0~~~000~0~0-0-0-0-0-0-0~~~000~000~~~0~~~000~0~00000000-| 
|-0~~~000~000~~~0~~~000~0~0-0-0-0-0-0-0~~~000~000~~~0~~~000~0~00000000-|    
  *   *** ***   *   *** * * * * * * * *   *** ***   *   *** * ******** 
                            
|----------------------------------------------------------------------| 
|----------------------------------------------------------------------| 
|----------------------------------------------------------------------| 
|----------------------------------------------------------------------| 
|-0~~~000~000~~~0~~~000~0~0-0-0-0-0-0-0~~~000~000~~~0~~~000~0~00000000-| 
|-0~~~000~000~~~0~~~000~0~0-0-0-0-0-0-0~~~000~000~~~0~~~000~0~00000000-|   
  *   *** ***   *   *** * * * * * * * *   *** ***   *   *** * ******** 

|--------------------| 
|--------------------| 
|--------------------| 
|--------------------| 
|-0~0000000~0~0~0~0~-| 
|-0~0000000~0~0~0~0~-|  
    ******    * * * 

1:55                          
|---------------------------------------------------------------------------| 
|---------------------------------------------------------------------------| 
|--------------------------------------------------------------14/15\14\12/-| 
|---------------------------------------------------------------------------| 
|------000-000---0---000-0-0-0-0-0-0-0-0---000-000---0---000-0-12/13\12\10/-| 
|-12\--000-000---0---000-0-0-0-0-0-0-0-0---000-000---0---000-0--------------|  
                             
                              
|---------------------------------------------------------------------------| 
|---------------------------------------------------------------------------| 
|-14----------------------------------------------------------14/15\14\12---| 
|---------------------------------------------------------------------------| 
|-12--000-000---0---000-0-0-0-0-0-0-0-0---000-000---0---000-0-12/13\12\10---| 
|-----000-000---0---000-0-0-0-0-0-0-0-0---000-000---0---000-0---------------|  


2:07 
|---------------------------------------------------------------------------| 
|---------------------------------------------------------------------------| 
|---------------------------------------------------------------------------| 
|-13-12-0-0-0-0-12-0-0-0-0-0-0-0-0-0-0-0-13-12-0-0-0-0-12-0-0-0-10-10-12-12-| 
|---------------------------------------------------------------------------| 
|---------------------------------------------------------------------------| 

|---------------------------------------------------------------------------| 
|---------------------------------------------------------------------------| 
|---------------------------------------------------------------------------| 
|-13-12-0-0-0-0-12-0-0-0-0-0-0-0-0-0-0-0-16-0-0-0-0-0-13-12-0-0-12-13-16-0--| 
|---------------------------------------------------------------------------| 
|---------------------------------------------------------------------------| 

|---------------------------------------------------------------------------| 
|---------------------------------------------------------------------------| 
|---------------------------------------------------------------------------| 
|-13-12-0-0-0-0-12-0-0-0-0-0-0-0-0-0-0-0-13-12-0-0-0-0-12-0-0-0-10-10-12-12-| 
|---------------------------------------------------------------------------| 
|---------------------------------------------------------------------------| 

|---------------------------------------------------------------------------| 
|---------------------------------------------------------------------------| 
|---------------------------------------------------------------------------| 
|-13-12-0-0-0-0-12-0-0-0-0-0-0-0-0-0~---------------------------------------| 
|---------------------------------------------------------------------------| 
|---------------------------------------------------------------------------| 

2:07(Rhythm) 
|---------------------------------------------------------------------------| 
|---------------------------------------------------------------------------| 
|---------------------------------------------------------------------------| 
|---------------------------------------------------------------------------| 
|-0~~~~~~~~~~~7~~~3~~~~~~~1~~~~~~~0~~~~~~~~~~~7~~~3~~~~~~~------------------| 
|-0~~~~~~~~~~~7~~~3~~~~~~~1~~~~~~~0~~~~~~~~~~~7~~~3~~~~~~~------------------| 


2:19                                                              
|-------------------------------------------------------| 
|-------------------------------------------------------| 
|-14-14-14-14-14-14-14-14-14\12-12-12-12/15-15-15-------| 
|-------------------------------------------------------| 
|-12-12-12-12-12-12-12-12-12\10-10-10-10/13-13-13-------| 
|-------------------------------------------------------| \ 
                                                           x4                            
|-------------------------------------------------------| / 
|-------------------------------------------------------| 
|-14-14-14-14-14-14-14-14-14\10-10-10-10/12-12-12-------| 
|-------------------------------------------------------| 
|-12-12-12-12-12-12-12-12-12\-8--8--8--8/10-10-10-------| 
|-------------------------------------------------------|  
                                                                 

2:43 (Lead) 
|-------------------------------------------------------------------------| 
|-------------------------------------------------------------------------| 
|-------------------------------------------------------------------------| 
|-17h19-0-0-0-0-17h19-0-0-0-0-0-0-0-0-0-0-17h19-0-0-0-0-17h19-0-0-0-0-0-0-| 
|-------------------------------------------------------------------------| 
|-------------------------------------------------------------------------|   \ 
        * * * *       * * * * * * * * * *       * * * *       * * * * * *      \ 
                                                                                x2 
                                                                               /  
|---------------------------------------------------------------------------| / 
|---------------------------------------------------------------------------| 
|---------------------------------------------------------------------------| 
|-17h19-0-0-0-0-17h19-0-0-0-0-0-0-0-0-0-0-17h19-0-0-0-0-15h17-0-0-14h15-0-0-| 
|---------------------------------------------------------------------------| 
|---------------------------------------------------------------------------| 
        * * * *       * * * * * * * * * *       * * * *       * *       * * 

2:43 (Rhythm) 
|------------------------------------------------------------------------| 
|------------------------------------------------------------------------| 
|------------------------------------------------------------------------| 
|------------------------------------------------------------------------| 
|-0-0-0-0-0-0-0-0-0-------------------------------- -------------0---0-0-| 
|-0-0-0-0-0-0-0-0-0----------------------------------------------0---0-0-|   \ 
  * * * * * * * * *                                              *   * *      \ 
                                                                               x2 
                                                                              /                  
|--------------------------------------------------------------------------| / 
|--------------------------------------------------------------------------| 
|--------------------------------------------------------------------------| 
|--------------------------------------------------------------------------| 
|-0-0-0-0-0-0-0-0-0------------------------------------0---0---0-0-0-0-0-0-| 
|-0-0-0-0-0-0-0-0-0------------------------------------0---0---0-0-0-0-0-0-| 
  * * * * * * * * *                                    *   *   * * * * * * 

Second ending of the rhythm is: 

|--------------------------------------------------------------------------|  
|--------------------------------------------------------------------------| 
|--------------------------------------------------------------------------| 
|--------------------------------------------------------------------------| 
|-0-0-0-0-0-0-0-0-0------------------------------------0~~~0~~~~~~~~~~~~~~-| 
|-0-0-0-0-0-0-0-0-0------------------------------------0~~~0~~~~~~~~~~~~~~-| 
  * * * * * * * * *                                    *   *    


2:55 - Pre-Chorus 
|---------------------------------------------------------------------------------------| 
|---------------------------------------------------------------------------------------| 
|-10-10-10--------10-10-10----------------10-10-10---------10-10-10--------10/14-14-14--| 
|---------------------------------------------------------------------------------------| 
|--8--8--8---------8--8--8--------000-000--8--8--8----------8--8--8---------8/12-12-12--| 
|----------0~~~~~----------0~~~~~-000-000----------0~~~~~~----------0~~~~~--------------| 

2:55 - Pre-Chorus (Harmony)  

|---------------------------------------------------------------------------------------| 
|---------------------------------------------------------------------------------------| 
|-14-14-14--------14-14-14----------------14-14-14---------14-14-14--------10/14-14-14--| 
|---------------------------------------------------------------------------------------| 
|-12-12-12--------12-12-12----------------12-12-12---------12-12-12---------8/12-12-12--| 
|----------0~~~~~----------0~~~~~------------------0~~~~~~----------0~~~~~--------------| 
                                                                                 

3:01 - Chorus 
|---------------------------------------------------------------------------------------| 
|---------------------------------------------------------------------------------------| 
|-------10-10-10-------12-12-12-12\10-10-10-------10-10-10-------12-12-12-12\10---------| 
|-------------------------------------------------------------------------------<7>~~~--| 
|--------8--8--8-------10-10-10-10\-8--8--8--------8--8--8-------10-10-10-10\-8---------| 
|-0-0-0----------0-0-0----------------------8-8-8----------8-8-8------------------------| 

|-----------------------------------------------------------------------------| 
|-----------------------------------------------------------------------------| 
|-------10-10-10-------12-12-12-12\10-10-10-----------------------------------| 
|-------------------------------------------5h7-0-0-0-0-10-0-0-0-7-0-0-0-5-0--| 
|--------8--8--8-------10-10-10-10\-8--8--8-----------------------------------| 
|-5-5-5----------5-5-5--------------------------------------------------------|... 
                                                * * * *    * * *   * * *   * 

    Ending 1 (3:11): 
   |-----------------------------------| 
   |-----------------------------------| 
   |------------------10---------------| 
   |--0-0-3-0-0-0-0-0------7-----------| 
   |---------------------------10---8--| 
...|-----------------------------------|  
      * *   * * * * *  

3:13 
|---------------------------------------------------------------------------------------| 
|---------------------------------------------------------------------------------------| 
|-------10-10-10-------12-12-12-12\10-10-10-------10-10-10-------12-12-12-12\10-10-10---| 
|---------------------------------------------------------------------------------------| 
|--------8--8--8-------10-10-10-10\-8--8--8--------8--8--8-------10-10-10-10\-8--8--8---| 
|-0-0-0----------0-0-0----------------------8-8-8----------8-8-8------------------------| 

|---------------------------------------------------------------------------------| 
|---------------------------------------------------------------------------------| 
|-------10-10-10-------12-12-12-12\10-10-10---------------------------------------| 
|-------------------------------------------14h15-0-0-0-0-19-0-0-0-15-0-0-0-14-0--| 
|--------8--8--8-------10-10-10-10\-8--8--8---------------------------------------| 
|-5-5-5----------5-5-5------------------------------------------------------------|... 
                                                  * * * *    * * *    * * *    * 
               
    Ending 2 (3:23): 
   |---------------------------------| 
   |---------------------------------| 
   |--------------17-----------------| 
   |--0-0-15~~~~~------15---14---15--| 
   |---------------------------------| 
...|---------------------------------|  
      * * 

3:01 - Chorus (Harmony)  
|---------------------------------------------------------------------------------------| 
|---------------------------------------------------------------------------------------| 
|-------14-14-14-------12-12-12-12\10-10-10-------14-14-14-------12-12-12-12\10---------| 
|-------------------------------------------------------------------------------<7>~~~--| 
|-------12-12-12-------10-10-10-10\-8--8--8-------12-12-12-------10-10-10-10\-8---------| 
|-0-0-0----------0-0-0----------------------8-8-8----------8-8-8------------------------| 

|-----------------------------------------------------------------------------| 
|-----------------------------------------------------------------------------| 
|-------14-14-14-------12-12-12-12\10-10-10-----------------------------------| 
|-------------------------------------------5h7-0-0-0-0-10-0-0-0-7-0-0-0-5-0--| 
|-------12-12-12-------10-10-10-10\-8--8--8-----------------------------------| 
|-5-5-5----------5-5-5--------------------------------------------------------|... 
                                                * * * *    * * *   * * *   * 

    Ending 1 (3:11): 
   |-----------------------------------| 
   |-----------------------------------| 
   |------------------10---------------| 
   |--0-0-3-0-0-0-0-0------7-----------| 
   |---------------------------10---8--| 
...|-----------------------------------|  
      * *   * * * * *  

3:13 - Chorus (Harmony)  
|---------------------------------------------------------------------------------------| 
|---------------------------------------------------------------------------------------| 
|-------14-14-14-------12-12-12-12\10-10-10-------14-14-14-------12-12-12-12\10-10-10---| 
|---------------------------------------------------------------------------------------| 
|-------12-12-12-------10-10-10-10\-8--8--8-------12-12-12-------10-10-10-10\-8--8--8---| 
|-0-0-0----------0-0-0----------------------8-8-8----------8-8-8------------------------| 

|---------------------------------------------------------------------------------| 
|---------------------------------------------------------------------------------| 
|-------14-14-14-------12-12-12-12\10-10-10---------------------------------------| 
|-------------------------------------------14h15-0-0-0-0-19-0-0-0-15-0-0-0-14-0--| 
|-------12-12-12-------10-10-10-10\-8--8--8---------------------------------------| 
|-5-5-5----------5-5-5------------------------------------------------------------|... 
                                                  * * * *    * * *    * * *    * 
               
    Ending 2 (3:23): 
   |---------------------------------| 
   |---------------------------------| 
   |--------------17-----------------| 
   |--0-0-15~~~~~------15---14---15--| 
   |---------------------------------| 
...|---------------------------------|  
      * * 

3:25 (Lead) 
|-------------------------------------------------------------------------| 
|-------------------------------------------------------------------------| 
|-------------------------------------------------------------------------| 
|-17h19-0-0-0-0-17h19-0-0-0-0-0-0-0-0-0-0-17h19-0-0-0-0-17h19-0-0---------| 
|-----------------------------------------------------------------20\-----| 
|-------------------------------------------------------------------------| x2 
        * * * *       * * * * * * * * * *       * * * *       * *                 

3:25 (Rhythm) 
|---------------------------------------------------------------------| 
|---------------------------------------------------------------------| 
|---------------------------------------------------------------------| 
|-8h12-0-0-0-0-8h12-0-0-0-0-0-0-0-0-0-0-8h12-0-0-0-0-8h12-0-0-15\-----| 
|---------------------------------------------------------------------| 
|---------------------------------------------------------------------| x2 
       * * * *      * * * * * * * * * *      * * * *      * *               

3:31 
|---------------------------------------------------------| 
|---------------------------------------------------------| 
|---------------------------------------------------------| 
|---------------------------------------------------------| 
|-000000000-----000-0-0---00000000000000000-----000-------| 
|-000000000-----000-0-0---00000000000000000-----000-------| 
  *********     *** * *   *****************     *** 

|---------------------------------------------------------| 
|---------------------------------------------------------| 
|---------------------------------------------------------| 
|---------------------------------------------------------| 
|-000000000-----0000000---00000000000000000-----000-------| 
|-000000000-----0000000---00000000000000000-----000-------| 
  *********     *******   *****************     *** 

|---------------------------------------------------------| 
|---------------------------------------------------------| 
|---------------------------------------------------------| 
|---------------------------------------------------------| 
|-000000000-----000-0-0---00000000000000000-----000-------| 
|-000000000-----000-0-0---00000000000000000-----000-------| 
  *********     *** * *   *****************     *** 

|---------------------------------------------------------| 
|---------------------------------------------------------| 
|---------------------------------------------------------| 
|---------------------------------------------------------| 
|-000000000-----0000000---00000000000000000-----000-------| 
|-000000000-----0000000---00000000000000000-----000-------| 
  *********     *******   *****************     *** 

 
		  

See also:

tabs Creed - One Last Breath (ver. 2) tabs Guns N' Roses - Sweet Child O' Mine (ver. 2) tabs Guns N' Roses - 14 Years tabs The Doors - People Are Strange tabs Live - Lightning Crashes tabs Aerosmith - I Don't Want To Miss A Thing
e-chords

Other versions:

tabs Miss May I - Hey Mister tabs Pop Evil - Hey Mister
auto scroll beats size up size down change color hide chords drawings
tab show chords e-chords YouTube Clip e-chords hide all tabs e-chords go to top tab

share