Miss May I

Gone

Miss May I

tabs

by  EDSOOLIVEIRA

save to print version add songbook text version e-mail correct tuner
chordsukulelecavacokeyboardtabbassdrumsharmonicaflute Guitar Pro
close

there isn't a video lesson for this song

chords

Gone

Key:  C More
Gone Key GG
Gone Key G#G#
Gone Key AA
Gone Key A#A#(one step down)
Gone Key BB(half step down)
Gone Key CC(original key)
Gone Key C#C#(half step up)
Gone Key DD(one step up)
Gone Key D#D#
Gone Key EE
Gone Key FF
Gone Key F#F#
	  		

Tuning is: CGCFAD (DROP C) 

Intro / Verse riff 
D|-------------------------------------------------| 
A|-------------------------------------------------| 
F|-------------------------------------------------| 
C|-------------------------------------------------| 
G|-4---5---7---4---5---7---0---2---4---242-5---4---| 
C|---4---4---4---4---4---4---0---0---0-------0---0-| 

D|------------------------------------------------------| 
A|------------------------------------------------------| 
F|------------------------------------------------------| 
C|-------------------------7---9---11---12-11-9-11-9----| 
G|-4---5---7---4---5---7-----7---7----7--------------12-| 
C|---4---4---4---4---4---4------------------------------| 
Play this part 3 times. (Intro + Verse) 



Pre-Chorus 
D|--------------------------------------------------------| 
A|--------------------------------------------------------| 
F|--------------------------------------------------------| 
C|-0-11-0-9-0-7-9-0-11-0-7-0-0-11-0-9-0-7-9-0-11-0-7-0----| 
G|--------------------------------------------------------| 
C|--------------------------------------------------------| 

D|--------------------------------------------------------| 
A|--------------------------------------------------------| 
F|--------------------------------------------------------| 
C|---11---9---7-9---11---7-----11---9---7-11-9-7----------| 
G|-7----7---7-----7----7---7-9----9---9----------11-7-9---| 
C|--------------------------------------------------------| 
Play this part 2 times. 



Chorus 
D|-------------------------------------------------| 
A|-------------------------------------------------| 
F|-------------------------------------------------| 
C|-4-4---4---4-4---4---4---7-7---7---7-7---7---7---| 
G|-4-4---4---4-4---4---4---7-7---7---7-7---7---7---| 
C|-4-4---4---4-4---4---4---7-7---7---7-7---7---7---| 

D|---------------------------------------------------| 
A|---------------------------------------------------| 
F|-------------------------4/6-6-6-6-6-6/7\6-6-6-6-6-| 
C|-0-0---0---0-0---0---0-----------------------------| 
G|-0-0---0---0-0---0---0---2/4-4-4-4-4-4/5\4-4-4-4-4-| 
C|-0-0---0---0-0---0---0-----------------------------| 
This part 4 times. 


Verse riff x2 

Pre-Chorus x2 

Chorus x4 



Bridge (to the solo) 

D|---------------------------------------------------| 
A|---------------------------------------------------| 
F|---------------------------------------------------| 
C|-0-----------------------0-------------------------| 
G|-0-----------------------0-------------------------| 
C|-0-----------------------0-------------------------| 

D|---------------------------------------------------| 
A|---------------------------------------------------| 
F|-------------------------4/6-6-6-6-6-6/7\6-6-6-6-6-| 
C|-0-------------------------------------------------| 
G|-0-----------------------2/4-4-4-4-4-4/5\4-4-4-4-4-| 
C|-0-------------------------------------------------| 
2 times. 



Solo (The rythm-guitar plays same riff as after the solo) 

D|-14----------------------------14----------------------------| 
A|-17b---------------------------17b-------------17------------| 
F|-------------------------------------------------------------| 
C|-------------------------------------------------------------| 
G|-------------------------------------------------------------| 
C|-------------------------------------------------------------| 

D|-17-21-17------------------16---16-19-16------------------14-| 
A|------------19--------19-------------------17--------17------| 
F|-----------------18-----------------------------16-----------| 
C|-------------------------------------------------------------| 
G|-------------------------------------------------------------| 
C|-------------------------------------------------------------| 

C|-14-17-14------------------14---17---19---17---16---17---16--| 
G|------------15--------15-------------------------------------| 
C|-----------------14------------------------------------------| 
C|-------------------------------------------------------------| 
G|-------------------------------------------------------------| 
C|-------------------------------------------------------------| 

D|-------------------------------------------------------------| 
A|-17b---------------------------17b-------------17b-----------| 
F|-------------------------------------------------------------| 
C|-------------------------------------------------------------| 
G|-------------------------------------------------------------| 
C|-------------------------------------------------------------| 

D|-----------21-------------21-------------21-------------21---| 
A|-17---19--------17---19--------17---19--------17---19--------| 
F|-------------------------------------------------------------| 
C|-------------------------------------------------------------| 
G|-------------------------------------------------------------| 
C|-------------------------------------------------------------| 

C|-21-22-21---19---21---19-------19-21-19---------19-----------------| 
G|--------------------------22---------------22--------22---21---19\-| 
C|-------------------------------------------------------------------| 
C|-------------------------------------------------------------------| 
G|-------------------------------------------------------------------| 
C|-------------------------------------------------------------------| 



Post-solo riff 
D|---------------------------------------------------| 
A|---------------------------------------------------| 
F|---------------------------------------------------| 
C|---------------------------------------------------| 
G|---------------------------------------------------| 
C|-444-4-4-4-4-444-4-4-4-4-444-4-4-4-4-444-4-4-4-4---| 

D|---------------------------------------------------| 
A|---------------------------------------------------| 
F|---------------------------------------------------| 
C|-------------------------0-----------2-------------| 
G|-------------------------0-----------2-------------| 
C|-444-4-4-4-4-444-4-4-4-4-0-----------2-------------| 
2 times. 



Last Chorus, first part starts of like this: 

     So what about me...               ...when you're 
D|---------------------------------------------------| 
A|---------------------------------------------------| 
F|---------------------------------------------------| 
C|-4-------------------------------------------------| 
G|-4-------------------------------------------------| 
C|-4-------------------------------------------------| 
  gone? 
D|---------------------------------------------------| 
A|---------------------------------------------------| 
F|----------------------4/6-6-6-6-6-6/7\6-6-6-6-6----| 
C|---------------------------------------------------| 
G|----------------------2/4-4-4-4-4-4/5\4-4-4-4-4----| 
C|---------------------------------------------------| 

Chorus x4 

And the Outro is just the intro/verse riff x2 


b = Bend 
/ = Slide up 
\ = slide down  
		  

Full key step upFull key step up
Half key step upHalf key step up
Half key step downHalf key step down
Full key step downFull key step down
hide glossary

See also:

tabs Creed - One Last Breath (ver. 2) tabs Guns N' Roses - Sweet Child O' Mine (ver. 2) tabs Guns N' Roses - 14 Years tabs The Doors - People Are Strange tabs Live - Lightning Crashes tabs Aerosmith - I Don't Want To Miss A Thing
e-chords

Other versions:

tabs Jack Johnson - Gone tabs Montgomery Gentry - Gone tabs Pearl Jam - Gone tabs TobyMac - Gone tabs Bouncing Souls - Gone tabs Melody Gardot - Gone
auto scroll beats size up size down change color hide chords drawings
tab show chords e-chords YouTube Clip e-chords hide all tabs e-chords go to top tab

share