Misfits

Return Of The Fly

Misfits

tabs

by  ANDRSOUZA

save to print version add songbook text version e-mail correct tuner
chordsukulelecavacokeyboardtabbassdrumsharmonicaflute Guitar Pro
close

there isn't a video lesson for this song

chords

Return Of The Fly

	  		
Intro 1: 
e|-------------------------------------------------| 
B|-------------------------------------------------| 
G|-------------------------------------------------| 
D|-------------------------------------------------| 
A|--8--8\4--4/8--8\4--4/8--8\4--4/8--8\4-----------| 
E|--6--6\2--2/6--6\2--2/6--6\2--2/6--6\2-----------| 

Verso 1: 
e|-----------------------------| 
B|-----------------------------| 
G|-----------------------------| 
D|--3--3-3--3-3----------------|  (4x) 
A|--1--1-1--1-1---4--4-4--4-4--| 
E|----------------2--2-2--2-2--| 

Verso 2: 
e|-----------------------------| 
B|-----------------------------| 
G|-----------------------------| 
D|--9--9-9--9-9---7--7-7--7-7--|  (3x) 
A|--7--7-7--7-7---5--5-5--5-5--| 
E|-----------------------------| 

Verso 3: 
e|-----------------------------| 
B|-----------------------------| 
G|-----------------------------| 
D|--9--9-9--9-9---7-6-5-4------| 
A|--7--7-7--7-7---5-4-3-2------| 
E|-----------------------------|
 
		  

See also:

tabs Gary Moore - Parisienne Walkways tabs Lifehouse - Blind tabs Cream - Sunshine Of Your Love Accurate tabs Iron Butterfly - In-A-Gadda-De-Vida tabs Gary Moore - Still Got the Blues (ver. 2) tabs Hoobastank - The Reason (ver. 2)
e-chords

Other versions:

tabs Misfits - Return Of The Fly
auto scroll beats size up size down change color hide chords drawings
tab show chords e-chords YouTube Clip e-chords hide all tabs e-chords go to top tab

share