Misfits

Fiend Club

Misfits

tabs

by  RENEJUNIOR

save to print version add songbook text version e-mail correct tuner
chordsukulelecavacokeyboardtabbassdrumsharmonicaflute Guitar Pro
close

there isn't a video lesson for this song

chords

Fiend Club

	  		(riff 1) 
 
Eb|-----|--------------------------------------------------------------------| 
Bb|-----|--------------------------------------------------------------------| 
Gb|-----|--------------------------------------------------------------------| 
Db|-----|--------------------------------------------------------------------|  
Ab|-----|--6-------------2-------------4-------------------------------------| 
Eb|--2--|--4--7-4-7-4-7--0--0-0-0-0-0--2-------------------------------------| 
 

(riff 2) 
 
Eb|--------------------------------------------------------------------------| 
Bb|--------------------------------------------------------------------------| 
Gb|--------------------------------------------------------------------------| 
Db|--------------------------------------------------------------------------|  
Ab|--------------------------------------------------------------------------| 
Eb|--4--7-4-7-4-7--0--0-0-0-0-0--2-------------------------------------------| 
 
(PM)    . . . . .     . . . . . (palm mute na parte cantada) 

(riff 3) 
 
Eb|-----------------| 
Bb|-----------------| 
Gb|-----------------| 
Db|-----------------|  
Ab|--6:-------2:----| 
Eb|--4:-------0:----| 
 

(riff 4) 
 
Eb|---------------------------------------| 
Bb|---------------------------------------| 
Gb|---------------------------------------| 
Db|-------8-8--9-9--11-11/----------------|  Faša um slide na primeira  
Ab|--9-9--6-6--7-7--9--9/-----------------|    vez que tocar o riff 
Eb|--7-7----------------------------------| 
 

(riff 5) 
 
Eb|-------------| 
Bb|-------------| 
Gb|-------------| 
Db|--------6:---| 
Ab|----2:--4:---| 
Eb|----0:-------| 
 

(riff 6) 
 
Eb|-------------------------------------------------------------------------| 
Bb|-------------------------------------------------------------------------| 
Gb|-------------------------------------------------------------------------| 
Db|-------------------------------------------------------------------------| 
Ab|-------6-------------2--2-2-2-2-2--4-------------------------------------| 
Eb|-------4--7-4-7-4-7--0--0-0-0-0-0--2-------------------------------------| 
 
(PM)                        . . . . . 

riff 1        4x 
riff 2        4x 
riff 3        2x (E) 
riff 4        3x 
riff 5        1x 
riff 1        2x 
riff 2        4x 
riff 3        2x 
riff 4        3x 
riff 5        1x 
riff 6        4x (E) 
riff 4        3x 
riff 5        1x 
riff 4        3x 
riff 5        2x 
		  

Full key step upFull key step up
Half key step upHalf key step up
Half key step downHalf key step down
Full key step downFull key step down
hide glossary

See also:

tabs Pixies - Gigantic tabs Pixies - Hey tabs Cky - Eye of the Tiger tabs Queens Of The Stone Age - No One Knows tabs Relient K - Be My Escape tabs Lordi - Hard Rock Hallelujah
e-chords

Other versions:

tabs Misfits - Fiend Club
auto scroll beats size up size down change color hide chords drawings
tab show chords e-chords YouTube Clip e-chords hide all tabs e-chords go to top tab

share