Mischief Brew

Weapons

Mischief Brew

tabs

by  TARIKIKE

save to print version add songbook text version e-mail correct tuner
chordsukulelecavacokeyboardtabbassdrumsharmonicaflute Guitar Pro
close

there isn't a video lesson for this song

chords

Weapons

Key:  Em More
Weapons Key BmBm
Weapons Key CmCm
Weapons Key C#mC#m
Weapons Key DmDm(one step down)
Weapons Key D#mD#m(half step down)
Weapons Key EmEm(original key)
Weapons Key FmFm(half step up)
Weapons Key F#mF#m(one step up)
Weapons Key GmGm
Weapons Key G#mG#m
Weapons Key AmAm
Weapons Key A#mA#m
	  		
Intro Part 1    
                    
   1           2               3               4               1 
e|-------0-----0---0---0---0---0---0---0---0---0---0---0---0---0---0---| 
B|-0--3----------0---0---0---0---0---0---0---0---0---0---0---0---0---0-| 
G|---------------------------------------------------------------------| 
D|---------------------------------------------------------------------| 
A|---------------------------------------------------------------------| 
E|-------0--0----------------------------------------------------------| 
                
e|-0---0---0h2p0---0--3p2p0--0---0---0h2p0---0-| 
B|---0---0-------3-------------0---0-------3---| 
G|---------------------------------------------| 
D|---------0-------------------------0---------| 
A|--------------------0----------------------0-| 
E|-0-------------------------0-----------------| 

e|-0---0---3p2p0----0-0---0---0h2p0---0-| 
B|---0---0------0-------0---0-------3---| 
G|--------------------------------------| 
D|----------------------------0---------| 
A|---------0--------------------------0-| 
E|-0------------------0-----------------| 

e|-0---0---3p2p0---0--0--0--0--0---0--------------| 
B|---0---0-------3----0--1--0----0---0--0h1p0-----| 
G|--------------------0--2--0-----------------2p0-| 
D|---------0----------2--2--2---------------------| 
A|-3------------------2--0--2--3------------------| 
E|--------------------0-----0---------------------| 

e|-0---0---0h2p0---0--3p2p0--0---0---0h2p0---0-| 
B|---0---0-------3-------------0---0-------3---| 
G|---------------------------------------------| 
D|---------0-------------------------0---------| 
A|--------------------0----------------------0-| 
E|-0-------------------------0-----------------| 

e|-0---0---0h2p0---0--3p2p0--0---0---0h2p0---0-| 
B|---0---0-------3-------------0---0-------3---| 
G|---------------------------------------------| 
D|---------0-------------------------0---------| 
A|--------------------0----------------------0-| 
E|-0-------------------------0-----------------| 

e|-0---0----------------------0---0----------------------| 
B|---0---0--3p1p0-----0-1-0-----0---0--0p1-0-------0-3~~-| 
G|----------------2--------------------------2---2-------| 
D|---------------------------------------------0---------| 
A|-3----------------0-------0-3--------------------------| 
E|-------------------------------------------------------| 

Intro Part 2 
                 v v v ^ v                      ^ ^  
e|-0-----------------------------0--------------3-3--| 
B|---3-0---------1-1-1-1-1---0-3---3-0-------0--0-0--| 
G|-------2-4p2-0-0-0-0-0-0-------------2-4p2-0--0-0--| 
D|-------0-------2-3-2-2-2-------------0--------0-0--| 
A|-------------3-3-3-3-3-3----------------------2-2--| 
E|-0-----------------------------0-----------3--3-3--| 

                    v v v ^ v                      ^ ^ ^ v ^ v ^ 
e|----0-----------------------------0--------------3-3-3-x-x-x-x-| 
B|0-3---3-0---------1-1-1-1-1---0-3---3-0-------0--0-0-0-x-x-x-x-| 
G|----------2-4p2-0-0-0-0-0-0-------------2-4p2-0--0-0-0-x-x-x-x-| 
D|----------0-------2-3-2-2-2-------------0--------0-0-0-x-x-x-x-| 
A|----------------3-3-3-3-3-3----------------------2-2-2-x-x-x-x-| 
E|----0-----------------------------0-----------3--3-3-3-x-x-x-x-| 

   vv^v vv^v         vv^v  
e|-0000-3333--------------| 
B|-1111-0000-3-3-3-3-3333-| 
G|-0000-0000-2-4-2-0-2222-| 
D|-2222-0000-0-0-0-0-2222-| 
A|-3333-2222---------0000-| 
E|------3333--------------| 

   vv^v vv^v         v 
e|-0000-3333-----------| 
B|-1111-0000-3-3-3-3---| 
G|-0000-0000-2-4-2-0-2-| 
D|-2222-0000-0-0-0-0-2-| 
A|-3333-2222---------0-| 
E|------3333-----------| 

Intro Part 3 

e|-----0-----------------------------------------------3-x3-3-x3-xxxx-3-x3-xxxx-3-x3-| 
B|-0-3---3-0-------------------------------------------0-x0-0-x0-xxxx-0-x0-xxxx-0-x0-| 
G|-----------2-0-2-4-2-0-------0-2-0-------0---0-2-0---0-x0-0-x0-xxxx-0-x0-xxxx-0-x0-| 
D|-----------0-----------4-2-4-------4-2-4---4---0---4-0-x0-0-x0-xxxx-0-x0-xxxx-0-x0-| 
A|-----------------------0-----3-----0-----3-----------2-x2-2-x2-xxxx-2-x2-xxxx-2-x2-| 
E|-----0-----------0-----------------------------------3-x3-3-x3-xxxx-3-x3-xxxx-3-x3-|  
		  

See also:

tabs Ramones - What A Wonderful World tabs Green Day - Good Riddance tabs Green Day - Good riddance(time of your life) tabs Blink 182 - Going away to college tabs 30 Seconds To Mars - The Kill tabs Blink 182 - Stay Together For The Kids (ver. 4)
e-chords

Other versions:

tabs Mischief Brew - Weapons tabs The Copyrights - Weapons Of Math Destruction
auto scroll beats size up size down change color hide chords drawings
tab show chords e-chords YouTube Clip e-chords hide all tabs e-chords go to top tab

share