Mischief Brew

Ten Thousand Fleas

Mischief Brew

tabs

by  UBIRBOMFIM

save to print version add songbook text version e-mail correct tuner
chordsukulelecavacokeyboardtabbassdrumsharmonicaflute Guitar Pro
close

there isn't a video lesson for this song

chords

Ten Thousand Fleas

	  		
Intro 

e|--------------------------------------------------------------------------------------------------| 
B|------------------------------------------------4-------------------------------------------------| 
G|---1-0---------1-0---------1-0---------1-0------------1-0---------1-0---------1-0---------1-0-----| 
D|-2-------3---2-------3---2-------3---2-------3------2-------3---2-------3---2-------3---2-------3-| 
A|-------2-----------2-----------2-----------2--------------2-----------2-----------2-----------2---| 
E|--------------------------------------------------------------------------------------------------| 


e|-----------------------------------------------------------------------------------------------------------| 
B|-----------------------------------------------------------------------------------------------------------| 
G|-----1-0---------1-0---------1-0---------1-0---3-----4---5-----1-0---------1-0---------1-0---------1-0-----| 
D|-----------3---2-------3---2-------3---2-----2---2-3---3-----2-------3---2-------3---2-------3---2-------3-| 
A|---------2-----------2-----------2---------------------------------2-----------2-----------2-----------2---| 
E|-0h1-------------------------------------------------------------------------------------------------------| 


Verse 

e|-------------------------------------| 
B|-------------------------------------| 
G|---1-0-----------------6-5-----------| 
D|-2-------3---(8x)----7-------8-(4x)--| 
A|-------2-------------------7---------| 
E|-------------------------------------| 

e|---------------------------| 
B|---------------------------| 
G|---------------------------| 
D|-2-----3------2-5-3--------|  use this riff for the 3rd verse also 
A|-2-----3------2-5-3--(2x)--|      and for solo 
E|-0-----1------0-3-1--------| 



Chorus 

e|--------------------------------------------------------------------------------------------| 
B|--------------------------------------------------------------------------------------------| 
G|-2-2----------------------2-2-------------2-2-----------------------------------------------| 
D|-3-3-2--------------------3-3-2-----------3-3-2--7-7-5--9-9-8-------------------------------| 
A|-3-3-2--------------------3-3-2-----------3-3-2--7-7-5--9-9-8-------------------------------| 
E|-1-1-0--------------------1-1-0-----------1-1-0--5-5-3--7-7-6------------3------0-1-0-------| 
        I sing a scavenger's...   As I lick..                     I'm just one of 10,000 fleas. 


Bridge 


e|----------------------------------------------------------------------------| 
B|--------------------3--------------3---------------3------------------3-----| 
G|--------------------2--0-----------2--0------------2--0---------------2--0--| 
D|--------------------0--2-----------0--2------------0--2---------------0--2--| 
A|-----------------------2--------------2---------------2------------------2--| 
E|-----------------------0--------------0---------------0------------------0--| 
  Raggedy raggamuffin..    Sleep away..   While the..     Soon there'll... 


e|-0-0-0-0-0-0-0-0-0-0-0--2-2-2-2-2-2-2-2-2-2-2--| 
B|-0-0-0-0-0-0-0-0-0-0-0--3-3-3-3-3-3-3-3-3-3-3--| 
G|-0-0-0-0-0-0-0-0-0-0-0--2-2-2-2-2-2-2-2-2-2-2--|  (4X) 
D|-2-2-2-2-2-2-2-2-2-2-2--0-0-0-0-0-0-0-0-0-0-0--| 
A|-2-2-2-2-2-2-2-2-2-2-2-------------------------| 
E|-0-0-0-0-0-0-0-0-0-0-0-------------------------| 
  Come little boy... 


Solo 


e|-----9---7-8----8-7--------9-9/--------9/11-11-----------16----16----16-16-16----| 
B|---7---7------------9-8--8---8/--x-x-x-8/10-10------9p7-----13----13----------13-| 
G|-5-------------------------------x-x-x-------------------------------------------| 
D|-----------------------------------------------9h10------------------------------| 
A|---------------------------------------------------------------------------------| 
E|---------------------------------------------------------------------------------| 


e|----------------------------------------20-20-20----20-20-20----20---------| 
B|-10-9-10--------------------------------20-20-20----20-20-20----20------8--| 
G|---------9---------------------------------------------------------8h9-----| 
D|-----------10-9-10-9-7-6-7-----------------------17----------17------------| 
A|---------------------------8-7-5-7-8-7-------------------------------------| 
E|---------------------------------------------------------------------------| 


Outro 

e|-----------------| 
B|-----------------| 
G|-9-----11-12-14--|  ? 
D|-9-x-x-11-12-14--| 
A|-7-x-x--9-10-12--| 
E|-----------------| 

e|----------------------------------------------------------------------------| 
B|----------------------------------------------------------------------------| 
G|-------------------------------------7-7-7-5-7-5-5-4---4-5-7-7-7-5-7-5-5-4--| 
D|----6--6-7-9-6--6h7p6------9--(4x)-------------------7----------------------| 
A|----------------------8-7---------------------------------------------------| 
E|-0--------------------------------------------------------------------------| 


e|----------------------------------------------------------------x--| 
B|-8-8-----------------8-8-----------------8-8--------------------x--| 
G|-7-7--x-x--9-9--x-x--7-7--x-x--9-9--x-x--7-7-x-x--9-9--x-x--9/--x--| 
D|------x-x--9-9--x-x-------x-x--9-9--x-x------x-x--9-9--x-x--9/--x--| 
A|------------------------------------------------------------7/--x--| 
E|----------------------------------------------------------------x--| 


************************************ 

| x  Dead note 
| h  Hammer-on 
| p  Pull-off 
| /  Slide up 

************************************ 
		  

See also:

tabs Ramones - What A Wonderful World tabs Green Day - Good Riddance tabs Green Day - Good riddance(time of your life) tabs Blink 182 - Going away to college tabs 30 Seconds To Mars - The Kill tabs Blink 182 - Stay Together For The Kids (ver. 4)
e-chords

Other versions:

tabs Mischief Brew - Ten Thousand Fleas
auto scroll beats size up size down change color hide chords drawings
tab show chords e-chords YouTube Clip e-chords hide all tabs e-chords go to top tab

share