Miscellaneous / Australiana

Fremantle Dockers Theme Song

Miscellaneous / Australiana

tabs Beginner beginner

save to print version add songbook text version e-mail correct tuner
chordsukulelecavacokeyboardtabbassdrumsharmonicaflute Guitar Pro
close

there isn't a video lesson for this song

chords

Fremantle Dockers Theme Song

	  		Tabbed by Craig D. 
 
Dockers theme song:  In the tune of C Major (i think it's meant to be in  
this key) 
 
 
 
Simple Version: 
 
E|--------------------------------------------- 
B|----5---------------------------------------- 
G|------5--3-5-5------------------------------- 
D|-----------------3-1--3-1--3-1--3-5--1------- 
A|---------------------------------------3-3--- 
E|--------------------------------------------- 
 
 
E|--------------------------------------------- 
B|---5--------------------------5-------------- 
G|-----5--5-5-3-5-5---5-5-5-5-5---5------------ 
D|--------------------------------------------- 
A|--------------------------------------------- 
E|--------------------------------------------- 
 
 
E|--------------------------------------------- 
B|--------------------------------------------- 
G|--------------------------------------------- 
D|-----------------------------3-2-0----------- 
A|----3-0-5-0---3-0-5-0----3-0---------3-0-5-0- 
E|--------------------------------------------- 
 
 
 
------------------------------------------------------------- 
 
 
Here's it with a bass line added in:   ( "~" means to let the note ring out) 
 
 
E|--0-------------------------------------------- 
B|------1------1-1------------------------------- 
G|----------3----------------------------------- 
D|----------------------3-1-3-1-3-1--3-5-1------- 
A|--3~------1~----------3~------------------3-3-- 
E|----------------------1~----------------------- 
 
   'Freo Way To Go'     'Hit Em Real Hard 
                        Send Them Down Below' 
 
 
 
E|--0---------------------------------------0-------- 
B|-----1--1-1-----1-1----------1-1--1-1-1-----1-1---- 
G|--------------3------------------------------------ 
D|--------------------------------------------------- 
A|--3~----------1~--------------------------3~------- 
E|-----------------------------1~-------------------- 
 
'Freo Give em The Old Heave-Ho    We Are The Freo Dockers..' 
 
 
 
 
E|----------------------------------- 
B|--1-----3----------1-----3--------- 
G|--0-----2--2-------0-----2--2------ 
D|--2-----0--2-------2-----0--2------ 
A|--3--0-----0-------3--0-----0------ 
E|----------------------------------- 
 
Freo heave ho...ect 
 
 
E|---------------------------------- 
B|---1------6--5---3------1-----3----- 
G|---0-------------2------0-----2--2-- 
D|---2------3--2---0------2-----0--2-- 
A|---3--0---0--0----------3--0-----0-- 
E|---------------------------------- 
 
 
----------------------------------------------------------------- 
 
DOCKERS THEME SONG 
 
e-------------------------------------- 
B-------------------------------------- 
G-------------------------------------- 
D-------------------------------------- 
A-------------------------------------- 
E-5-2-7-2--5-2-7-2--5-2-10-9-7--5-2-7-2 
 
enojy! 
any corrections/comments plz feel free to 
email me @ [email protected] 
im pretty sure its right unless my guitar 
is horribly out of tune 
 
 
 

		  

Full key step upFull key step up
Half key step upHalf key step up
Half key step downHalf key step down
Full key step downFull key step down
hide glossary

See also:

tabs Pete Murray - My Time tabs The Veronicas - Everything I'm Not tabs Ganggajang - Hundreds of Languages tabs Leonardo's Bride - Even When I'm Sleeping tabs Spiderbait - Black Betty tabs Midnight Oil - Blue Sky Mine
e-chords

Other versions:

tabs Miscellaneous / Australiana - Fremantle Dockers Theme Song
auto scroll beats size up size down change color hide chords drawings
tab show chords e-chords YouTube Clip e-chords hide all tabs e-chords go to top tab

share