Miscellaneous / Australiana

Camp Quality

Miscellaneous / Australiana

tabs

save to print version add songbook text version e-mail correct tuner
chordsukulelecavacokeyboardtabbassdrumsharmonicaflute Guitar Pro
close

there isn't a video lesson for this song

chords

Camp Quality

	  		Remember the ad for Camp Quality they had a few years back? 
It had this ripper little song: 
 
Down strke = ^ 
Up stroke  = v 
Slide up - down = / - \ 
 
 
          ^   ^  v   v  ^  v   ^   ^  v   v  ^  v 
          A Asus4  A             Asus4  A 
      e|--------------------------------------------------------- 
      B|--2/3-3--3\2-2--2--2---2/3-3--3\2-2--2--2---------------- 
      G|--2---2--2---2--2--2---2---2--2---2--2--2---------------- 
      D|--2---2--2---2--2--2---2---2--2---2--2--2---------------- 
      A|--0---0--0---0--0--0---0---0--0---0--0--0---------------- 
      E|--------------------------------------------------------- 
       1.Hey    you, there's somethin' I wanna 
2.'Coze  you   know   that    sometimes you need a little 
3.'Coz   what   you give, is what you get and  
 
         ^ ^ v v    ^  ^ ^ v v ^ v 
         E	    D  E 
     e|--0----------2--0-------------- || 
     B|--0----------3--0-------------- || 
     G|--1----------2--1--------------*|| 
     D|--2----------0--2--------------*|| 
     A|--2----------0--2-------------- || 
     E|--0----------0--0-------------- || 
     1. say to you 
     2.Help, to pull you through 
     3.something more besides 
 
Then it changes chords as follows: 
 
     {B}'coz when you help me, you'll find I'll help you E too. (stop on E) 
      
     So put a little D quality in {A}your life 
     D quality in {A}mine 
     {D}there's something that's so {A}precious and that's {E}time 
     you need the {D}time to laugh and {A}time to take 
     a {D}ride in a bal{A}loon 
     {D}Looking at the {A}world from way up {E}high___. (stop on E) 
 
     Camp Qualit{A}y____________. 

		  

Full key step upFull key step up
Half key step upHalf key step up
Half key step downHalf key step down
Full key step downFull key step down
hide glossary

See also:

tabs Pete Murray - My Time tabs The Veronicas - Everything I'm Not tabs Ganggajang - Hundreds of Languages tabs Leonardo's Bride - Even When I'm Sleeping tabs Spiderbait - Black Betty tabs Midnight Oil - Blue Sky Mine
e-chords

Other versions:

tabs Miscellaneous / Australiana - Camp Quality
auto scroll beats size up size down change color hide chords drawings
tab show chords e-chords YouTube Clip e-chords hide all tabs e-chords go to top tab

share