Miscellaneous / Australiana

Advance Australia Fair

Miscellaneous / Australiana

tabs Advanced advanced

save to print version add songbook text version e-mail correct tuner
chordsukulelecavacokeyboardtabbassdrumsharmonicaflute Guitar Pro
close

there isn't a video lesson for this song

chords

Advance Australia Fair

	  		tabbed by dionysus 
 
 
I think a few notes are wrong but play it with 
heaps of overdrive and wah-wah (ala Hendrix) and 
noone will know :o) 
 
 
                 {               Play x2                } 
e|--------------|---------------------|--------------------| 
B|--7-9-5-7-4-5-|--0-5-0-----0---0-0--|--7/9-7-5-4-5-5/7---| 
G|--------------|--------1------------|--------------------| 
D|--------------|----------2----------|--------------------| 
A|--------------|---------------------|--------------------| 
E|--------------|---------------------|--------------------| 
 
 
e|------------------|------------------|------------------| 
B|--0-2-4-5-2-0-----|--0-2-5-7/9-7-5-4-|-0-2-4-5-2-0-5-5--| 
G|--------------1-1-|------------------|------------------| 
D|------------------|------------------|------------------| 
A|------------------|------------------|------------------| 
E|------------------|------------------|------------------| 
 
 
e|---------------|-------------------|------------------0--| 
B|-7-7/9-5-7-4-5-|--9-10-9-7-5-4-2-0-|--7-7/9-5-5/7-4-4/5--| 
G|---------------|-------------------|---------------------| 
D|---------------|-------------------|---------------------| 
A|---------------|-------------------|---------------------| 
E|---------------|-------------------|---------------------| 
 
 

		  

See also:

tabs Ben lee - Cigarettes Will Kill You tabs Pete Murray - Tonic tabs The Choirboys - Run To Paradise (solo) tabs Pete Murray - My Time tabs The Vines - In The Jungle (ver. 1) tabs Wolfmother - Woman
e-chords

Other versions:

tabs Miscellaneous / Australiana - Advance Australia Fair tabs Peter Dodds Mccormick - Advance Australia Fair
auto scroll beats size up size down change color hide chords drawings
tab show chords e-chords YouTube Clip e-chords hide all tabs e-chords go to top tab

share