Misc Your Songs

home > Misc Your Songs

Xoebros - Originals Tab

Misc Your Songs

Difficulty: nolevelnolevel

by bombaXXX

tuner correct add songbook print version text version save to e-mail
chordsukulelecavacokeyboardtabbassdrumsharmonicsflute Guitar Pro
chords

Xoebros - Originals

  		Intro 

e|----3/5----3---------3----------7-------------3h5p3-----------------------------| 
B|---------------0-0-------------------5----------------3p0--------7--7-----------| 
G|----------------0------------------------0-0------------------------------------| 
D|------------------------------------------0-------------------------------------| 
A|-----------3-------------------------3----------------3----------5--5-----------| 
E|-------------------------0h3----3---------------------------3-------------------| 

e|--------------------------------------------------------------------------------| 
B|----3------5------7-------8-----8-----8----8------------------------------------| 
G|------0-0----0-0-----0-0----0-0---0-0---0---------------------------------------|  2x 
D|--------------------------------------------------------------------------------| 
A|----2------3------5-------7-----7-----7----7------------------------------------| 
E|--------------------------------------------------------------------------------| 


verse 1 

e|-------------7-7-7-7------------------------------------------------------------| 
B|----5-5-5-5------------7-7-7-7---8-8-8-8-8-8-8-8--------------------------------| 
G|--------------------------------------------------------------------------------|  2x 
D|--------------------------------------------------------------------------------| 
A|---3-3-3-3------------5-5-5-5---7-7-7-7-7-7-7-7---------------------------------| 
E|------------3-3-3-3-------------------------------------------------------------| 

e|--------------------------------------------------------------------------------| 
B|--7h8---7---5----5---5----7---7----8---8---8-8-8-8------------------------------| 
G|--------------------------------------------------------------------------------|. 2x 
D|--------------------------------------------------------------------------------| 
A|-----------------3---3----5---5----7---7--7-7-7-7-------------------------------| 
E|--------------------------------------------------------------------------------| 


Chorus 

e|-------------------------------------3/5----------------------------------------| 
B|--7h8---7---5----5---5---3---3---0--------3--3----7--7----8----8-8-8-8----------| 
G|--------------------------------------------------------------------------------| 
D|--------------------------------------------------------------------------------| 
A|-----------------3---3---2---2------------3--3----5--5----7---7-7-7-7-----------| 
E|---------------------------------3----------------------------------------------| 

e|---------------3--3-------------------------------------------------------------| 
B|--7h8--7--5------------7--7---8-----8-8-8-8---12-12-12-12---10-10-10-10---------| 
G|--------------------------------------------------------------------------------| 
D|--------------------------------------------------------------------------------| 
A|---------------3--3----5--5---7----7-7-7-7---7--7--7--7----7--7--7--7-----------| 
E|--------------------------------------------------------------------------------| 


verse 2 

e|--------------------------------7-7-7-7----------------------------------------| 
B|---8-8-8-8----7-7-7-7-7-7-7-7-------------7-7-7-7---5-5-5-5--5--3--0-----------| 
G|-------------------------------------------------------------------------------| 
D|-------------------------------------------------------------------------------| 
A|--7-7-7-7----5-5-5-5-5-5-5-5-------------5-5-5-5---3-3-3-3---3--2--------------| 
E|-------------------------------3-3-3-3-----------------------------3-----------| 

e|---------------------------------------------------------------------------| 
B|---------------------------------------------------------------------------| 
G|---------------------------------------------------------------------------| 
D|---------------------------------------------------------------------------| 
A|---------------------------------------------------------------------------| 
E|---------------------------------------------------------------------------| 


Guitar 2 

e|---------------------------------------------------------------------------| 
B|--7-------7-------7-------7-------7/8-------8/10------10/12-------12-------| 
G|-----0-0-----0-0-----0-0-----0-0-------0-0-------0-0--------0--0-----0--0--| 
D|---------------------------------------------------------------------------| 
A|--5---5---5---5---5---5---5---5---5/7---7---7/9---9---9/10---10---10--10---| 
E|---------------------------------------------------------------------------| 

e|---------------------------------------------------------------------------| 
B|--12------12\10-----10\8------3-----3/5------------------------------------| 
G|-----0--0-------0-0------0-0----0-0----------------------------------------| 
D|---------------------------------------------------------------------------| 
A|--10--10--10\9---9--9\7---7---2--3--2/3------------------------------------| 
E|---------------------------------------------------------------------------| 



************************************ 

| h  Hammer-on 
| p  Pull-off 
| /  Slide up 
| \  Slide down 

************************************ 
	  

Search Paypal
auto scroll beats size up size down change color hide chords drawings
tab show chords e-chords YouTube Clip e-chords hide all tabs e-chords go to top tab