Misc Your Songs

home > Misc Your Songs

Tristan Syragakis - All Alone Tab

Misc Your Songs

Difficulty: nolevelnolevel

by fernsantana

tuner correct add songbook print version text version save to e-mail
chordsukulelecavacokeyboardtabbassdrumsharmonicsflute Guitar Pro
chords

Tristan Syragakis - All Alone

  		Intro 
    Am                        F                           C                          G(Barre) 
e|--------------0-----0-----|--------------1-----1-----|--------------0-----0-----|--------------3-----3-----| 
B|--------1-------1-----1---|--------1-------1-----1---|--------1-------1-----1---|--------3-------3-----3---| 
G|------2---2-------2-----2-|------2---2-------2-----2-|------0---0-------0-----0-|------4---4-------4-----4-| 
D|----2-------2-------------|----3-------3-------------|----2-------2-------------|----5-------5-------------| 
A|--0-----------------------|--------------------------|--3-----------------------|--------------------------| 
E|--------------------------|--1-----------------------|--------------------------|--3-----------------------| 


Verse 
  Am                        F                           C                          G(Barre) 
e|--------------0-----------|--------------1-----------|--------------0-----------|--------------3-----------| 
B|--------1-----------------|--------1-----------------|--------1-----------------|--------3-----------------| 
G|------2---2---------------|------2---2---------------|------0---0-------------0-|------4---4---------------| 
D|----2-------2-------------|----3-------3-------------|----2-------2-------------|----5-------5-------------| 
A|--0-----------------------|--------------------------|--3-----------------------|--------------------------| 
E|--------------------------|--1-----------------------|--------------------------|--3-----------------------| 


Chorus 
   C                          G(Barre)                   Am                         F 
e|--------------0-----------|--------------3-----------|--------------0-----------|--------------1-----------| 
B|--------1-----------------|--------3-----------------|--------1-----------------|--------1-----------------| 
G|------0---0---------------|------4---4---------------|------2---2---------------|------2---2---------------| 
D|----2-------2-------------|----5-------5-------------|----2-------2-------------|----3-------3-------------| 
A|--3-----------------------|--------------------------|--0-----------------------|--------------------------| 
E|--------------------------|--3-----------------------|--------------------------|--1-----------------------| 


Interlude 
Am                        F                           C                          G(Barre) 
e|--------------0-----0-----|--------------1-----1-----|--------------0-----0-----|--------------3-----3-----| 
B|--------1-------1-----1---|--------1-------1-----1---|--------1-------1-----1---|--------3-------3-----3---| 
G|------2---2-------2-----2-|------2---2-------2-----2-|------0---0-------0-----0-|------4---4-------4-----4-| 
D|----2-------2-------------|----3-------3-------------|----2-------2-------------|----5-------5-------------| 
A|--0-----------------------|--------------------------|--3-----------------------|--------------------------| 
E|--------------------------|--1-----------------------|--------------------------|--3-----------------------| 
    

Chorus 
   C                          G(Barre)                   Am                         F 
e|--------------0-----------|--------------3-----------|--------------0-----------|--------------1-----------| 
B|--------1-----------------|--------3-----------------|--------1-----------------|--------1-----------------| 
G|------0---0---------------|------4---4---------------|------2---2---------------|------2---2---------------| 
D|----2-------2-------------|----5-------5-------------|----2-------2-------------|----3-------3-------------| 
A|--3-----------------------|--------------------------|--0-----------------------|--------------------------| 
E|--------------------------|--3-----------------------|--------------------------|--1-----------------------| 


Outro 
   C                          G(Barre)                   Am                         F 
e|-------------------0------|-------------------3------|-------------------0------|-------------------1------| 
B|--------1----------1------|--------3----------3------|--------1----------1------|--------1----------1------| 
G|------0---0--------0------|------4---4--------4------|------2---2--------2------|------2---2--------2------| 
D|----2-------2-------------|----5-------5-------------|----2-------2-------------|----3-------3-------------| 
A|--3-----------------------|--------------------------|--0-----------------------|--------------------------| 
E|--------------------------|--3-----------------------|--------------------------|--1-----------------------| 
	  

Full key step upFull key step up
Half key step upHalf key step up
Half key step downHalf key step down
Full key step downFull key step down
Search Paypal
auto scroll beats size up size down change color hide chords drawings
tab show chords e-chords YouTube Clip e-chords hide all tabs e-chords go to top tab