Misc Your Songs

home > Misc Your Songs

Tom Leadbetter - Folky Tab

Misc Your Songs

Difficulty: nolevelnolevel

by bombaXXX

tuner correct add songbook print version text version save to e-mail
chordsukulelecavacokeyboardtabbassdrumsharmonicsflute Guitar Pro
chords

Tom Leadbetter - Folky

  		
Verse 
e|---------3p0---------------------3p0-----------------------------------------------------------------------| 
B|------------3p0--------0------------3p0-----------0-----------------1/3-0-------------------1/3-0----------| 
G|------------------2--------0-----------------2--------0-----------0-----------------------0----------------| 
D|-----------------------------------------------------------------------------------------------------------| 
A|--------------------------------------------------------------------3/5---------------------3/5------------| 
E|--3--3--3--3--3--3--3--3--3--3--3--3--3--3--3--3--0--0--0--0--0--0-------h3--3--3--3--3--3------h3--3--3--3| 

Pre-Chorus/Bridge 
e|-------------------------------------------------------------------------------------------------| 
B|--0h1---------0---------------------------------------------------------0------------------------| 
G|--------------------------------------0----------------------------------------------------------| 
D|--------------------------0h2---------------2p0-0------------------------------------------------| 
A|--3--3--3--3--3--3--3--3--3--3--3--3--3--3--3--3-------------------------------------------------| 
E|--------------------------------------------------3--3--3--3--3--3--3--3--3--3--3--3--3--3--3--3-| 

Chorus 
e|----------------------------------------------------------| 
B|------5--3----0--------------------5--3----0--------------| 
G|------------------0----------------------------0----------| 
D|----------------------------------------------------------| 
A|----------------------------------------------------------| 
E|--0--0--0--0--0--0--0--0-x2----3--3--3--3--3--3--3--3-x2--| 

e|------------------------------------------------------------------------------------| 
B|------5--3----0-----------------------------------1/3-0------------------1/3-0------| 
G|-----------------------2/4-----------------------0----------------------0-----------| 
D|------------------------------------------------------------------------------------| 
A|--------------------------------------------------3/5--------------------3/5--------| 
E|--0--0--0--0--0--0--0--0------0--0--0--0--0--0--0------h3--3--3--3--3--3------------| 

Instrumental 
e|---------3p0---------------------3p0---------------------------------------------------------------| 
B|------------3p0---------------------3p0---------------------------------3h5p0----------------------| 
G|---------------2p0------0--------------2p0-------0-------------------------------------------------| 
D|------------------2p0---------------------2p0------------------------------------------------------| 
A|---------------------2p0---------------------2p0---------------------------------------------------| 
E|--0--0--0--0--0--0--0--0--0--0--0--0--0--0--0--0--h3--3--3--3--3--3--3--3--3--3--3--3--3--3--3--3--| 


************************************ 

| p  Pull-off 
| /  Slide up 
| h  Hammer-on 
| x  Dead note 

************************************ 
	  

Search Paypal
auto scroll beats size up size down change color hide chords drawings
tab show chords e-chords YouTube Clip e-chords hide all tabs e-chords go to top tab