Misc Your Songs

home > Misc Your Songs

The New Thing The In Thing Tab

Misc Your Songs

Difficulty: nolevelnolevel

by marcnagel

tuner correct add songbook print version text version save to e-mail
chordsukulelecavacokeyboardtabbassdrumsharmonicsflute Guitar Pro
chords

The New Thing The In Thing

  		
Reverb on guitar 2 

Intro part 1 

E|--------------------------------| 
B|--------------------------------| 
G|--------------------------------|  x8 
D|--------10--------5-------------| 
A|-----12----12---7---7-----------| 
E|--10----------5-----------------| 


Intro part 2 
                                                  The last time 
guitar 1 
E|----------------------------------|          |-----------------------------| 
B|----------------------------------|          |-----------------------------| 
G|----------------------------------|          |-----------------------------| 
D|----------------------------------|     x3   |-----------------------------| 
A|--12--12--12/15-12--x--7--7/10-7--|          |--12--12--12/15\12--x--7/10--|(let ring) 
E|--10--10--10-13\10--x--5--5-8-\5--|          |--10--10--10/13\10--x--5/8---| 

guitar 2 
E|----0----10----8------------0----10----8----------0----10----8------------0----10\-| (slide down) 
B|-10---10----10---10------10---10----10---------10---10----10---10------10---10-----| 
G|-----------------------------------------------------------------------------------| 
D|-----------------------------------------------------------------------------------| 
A|-----------------------------------------------------------------------------------| 
E|-----------------------------------------------------------------------------------| 


Verse 

E|-------------------------|         |--------------| 
B|-----5-------------10----|         |-----5-----10-| (let ring) 
G|-----5-------------10----|   x7    |-----5-x-x-10-| 
D|----------------10----10-|         |-------x-x-10-| 
A|---7---7----5/8----------|         |---7---x-x-8--| 
E|-5-----------------------|         |-5-----x-x----| 

guitar 2 
   let ring    .....    ....   ....       ..... 
          E|-----------------5------------------10b12-8------| 
          B|------------8------5----8/10-10(v)----------10---| 
(2nd time)G|-7b9---------------------------------------------| 
          D|-------------------------------------------------| 
          A|-------------------------------------------------| 
          E|-------------------------------------------------| 


Chorus 

E|--------------------------------------------------| 
B|-----6-6--6-6--6-6--6-x-x-----6-6-6-6-x-x-5-5-5-5-| 
G|-----5-5--5-5--5-5--5-x-x-----7-7-7-7-x-x-5-5-5-5-|    x4  (let ring C the 4th time) 
D|-x-x-7-7--7-7--7-7--7-x-x-----7-7-7-7-x-x-5-5-5-5-| 
A|-x-x-8-8--8-8--8-8--8-x-x-5-5-5-5-5-5-x-x-3-3-3-3-| 
E|-x-x----------------------x-x---------------------| 


                                             ....       ...                ....                    ..... 
E|---------------------------------------------------------10b12-12b10-8-----------------10b12b10-8(v)-------| 
B|-----------------------------------------------10b12-10----------------10\---13b15b13----------------------| 
G|-5--7--5--7b9b7-5-------5-7b9b7-5-7-5-7/9-9----------------------------------------------------------------| 
D|------------------7-5-7------------------------------------------------------------------------------------| 
A|-----------------------------------------------------------------------------------------------------------| 
E|-----------------------------------------------------------------------------------------------------------| 


Repeat Intro part 2 
                                                  The last time 
guitar 1 
E|----------------------------------|          |-----------------------------| 
B|----------------------------------|          |-----------------------------| 
G|----------------------------------|          |-----------------------------| 
D|----------------------------------|     x3   |-----------------------------| 
A|--12--12--12/15\12--x--7--7/10\7--|          |--12--12--12/15\12--x--7/10--|(let ring) 
E|--10--10--10/13\10--x--5--5/8-\5--|          |--10--10--10/13\10--x--5/8---| 

guitar 2                                                                         ........ 
E|----0----10----8------------0----10----8---------0----10----8------10b12-------| (let ring) 
B|-10---10----10---10------10---10----10--------10---10----10---10---------------| 
G|-------------------------------------------------------------------------------| 
D|-------------------------------------------------------------------------------| 
A|-------------------------------------------------------------------------------| 
E|-------------------------------------------------------------------------------| 


Repeat verse 

guitar 1 
E|-------------------------|         |--------------| 
B|-----5-------------10----|         |-----5-----10-| (let ring) 
G|-----5-------------10----|   x7    |-----5-x-x-10-| 
D|----------------10----10-|         |-------x-x-10-| 
A|---7---7----5/8----------|         |---7---x-x-8--| 
E|-5-----------------------|         |-5-----x-x----| 

guitar 2            ......  ....  ....                                      ......    ...          ........ 
            E|---------------------------------------------------------------------------------------------| 
            B|-------------8--------------------------------------------------------------13(v)--15--------| 
(2nd time)  G|-5b7b5----------------------x-x-7h5-x-7h5-x-7h5-x-7h5--7-5-7/9------9/12---------------------| 
            D|-------------------7-------------------------------------------------------------------------| 
            A|---------------------------------------------------------------------------------------------| 
            E|---------------------------------------------------------------------------------------------| 


Outro 

guitar 1 
E|---------------------------------------8--8--8------------------| 
B|-x-x-6-6-6----x-5----6-6-6-x-5----x----10-10-10-x-10------------| 
G|-x-x-5-5-5----x-5----5-5-5-x-5----x----9--9--9--x-9--(let ring)-| x4     (Let ring until it 
D|-x-x-7-7-7----x-7----7-7-7---7----x----10-10-10-x-10------------|         fades out in the end) 
A|-x-x-8-8-8----x-8----8-8-8---8----x-----------------------------| 
E|----------------------------------------------------------------| 


guitar 2                   ....                                           .... 
E|------------------------------||-----17-15-----17-15--------------------------15----17----15---------------| 
B|----------------15/17--15-----||--17--------17--------17-15--17-15---------17----17----17----17-17--17-15--| 
G|------------------------------||-----------------------------------17--------------------------------------| 
D|------------------------------||---------------------------------------------------------------------------| 
A|------------------------------||---------------------------------------------------------------------------| 
E|------------------------------||---------------------------------------------------------------------------| 
           .... 
E|-----------------15----17----15-----------------------------| 
B|--------------17----17----17----17-15----------15-----------| 
G|-17-16-17-----------------------------17-16-17----14--------| 
D|------------------------------------------------------------| 
A|------------------------------------------------------------| 
E|------------------------------------------------------------| 



************************************ 

| x  Dead note 
| h  Hammer-on 
| b  Bend 
| /  Slide up 
| \  Slide down  
| v  Vibrato  

************************************ 
	  

Full key step upFull key step up
Half key step upHalf key step up
Half key step downHalf key step down
Full key step downFull key step down
Search Paypal
auto scroll beats size up size down change color hide chords drawings
tab show chords e-chords YouTube Clip e-chords hide all tabs e-chords go to top tab