Misc Your Songs

home > Misc Your Songs

The Faux - 914 Tab

Misc Your Songs

Difficulty: nolevelnolevel

by VsWorld

tuner correct add songbook print version text version save to e-mail
chordsukulelecavacokeyboardtabbassdrumsharmonicsflute Guitar Pro
chords

The Faux - 914

  		Intro 

e|---------------------------------------------------------------------------| 
B|---------------------------------------------------------------------------| 
G|---------------------------------------------------------------------------| 
D|---------------------------------------------------------------------------| 
A|---------------------------------------------------------------------------| 
E|---------------------------------------------------------------------------| 

(Lead Guitar) 
e|--------------------------------------------------------------------------------------------------| 
B|--------------------------------------------------------------------------------------------------| 
G|--------------------------------------------------------------------------------------------------| 
D|11-13-11-15-11-13-11-15-11-13-11-15-11-13-11-15-11-13-11-15-11-13-11-15-11-13-11-15-11-13-11-15-15| 
A|--------------------------------------------------------------------------------------------------| 
E|--------------------------------------------------------------------------------------------------| 


Verse 

e|--------------------------------------------------------------------------------------------------------| 
B|--------------------------------------------------------------------------------------------------------| 
G|--------------------------------------------------------------------------------------------------------| 
D|11-13-11-15-11-13-11-15-11-13-11-15-11-13-11-15-11-13-11-15-11-13-11-15-11-13-11-15-11-13-11-15-11-13-15| 
A|--------------------------------------------------------------------------------------------------------| 
E|--------------------------------------------------------------------------------------------------------| 

e|--------------------------------------------------------------------------------------| 
B|--------------------------------------------------------------------------------------| 
G|--------------------------------------------------------------------------------------| 
D|11-13-11-15-11-13-11-15-11-13-11-15-11-13-11-15-11-13-11-15-11-13-11-15-11-13-11-15-15| 
A|--------------------------------------------------------------------------------------| 
E|--------------------------------------------------------------------------------------| 


Chorus 

e|---------------------------------------------------------------------------| 
B|---------------------------------------------------------------------------| 
G|---------------------------------------------------------------------------| 
D|---------------------------------------------------------------------------| 
A|-4-4-4-4-4-4-4-4-4-4-4-4-4-4-4-4-4/6-6-6-6-6-6-6-6-6-6-6-6-6-6-6-6-6/8-8-8-| 
E|---------------------------------------------------------------------------| 

e|----------------------------------------------------------------------------| 
B|----------------------------------------------------------------------------| 
G|----------------------------------------------------------------------------| 
D|----------------------------------------------------------------------------| 
A|8-8-8-8-8-8-8-8-8-8-8-8-8-8-8-8/9-9-9-9-9-9-9-9-9/11-11-11-11-11-11-11-11-11| 
E|----------------------------------------------------------------------------| 

e|----------------------------------------------------------------------------| 
B|----------------------------------------------------------------------------| 
G|11h13-11\10b--11h13-11\10b--11h13-13--11h13-11\10b--11h13-11\10b--11h13-13--| 
D|----------------------------------------------------------------------------| 
A|----------------------------------------------------------------------------| 
E|----------------------------------------------------------------------------| 

e|----------------------------------------------------------------------------| 
B|----------------------------------------------------------------------------| 
G|11h13-11\10b--11h13-11\10b--11h13-13--11h13-11\10b--11h13-11\10b--11h13-13--| 
D|----------------------------------------------------------------------------| 
A|----------------------------------------------------------------------------| 
E|----------------------------------------------------------------------------| 


Interlude 

e|-----------------------------------------------------------------------------------------------------------| 
B|-----------------------------------------------------------------------------------------------------------| 
G|-----------------------------------------------------------------------------------------------------------| 
D|11-13-11-15-11-13-11-15-11-13-11-15-11-13-11-15-11-13-11-15-11-13-11-15-11-13-11-15-11-13-11-15-11-13-15-15| 
A|-----------------------------------------------------------------------------------------------------------| 
E|-----------------------------------------------------------------------------------------------------------| 

e|-----------------------------------------------------------------------------------------------------------| 
B|-----------------------------------------------------------------------------------------------------------| 
G|-----------------------------------------------------------------------------------------------------------| 
D|11-13-11-15-11-13-11-15-11-13-11-15-11-13-11-15-11-13-11-15-11-13-11-15-11-13-11-15-11-13-11-15-11-13-15-15| 
A|-----------------------------------------------------------------------------------------------------------| 
E|-----------------------------------------------------------------------------------------------------------| 


Verse 

e|--------------------------------------------------------------------------------------------------------| 
B|--------------------------------------------------------------------------------------------------------| 
G|--------------------------------------------------------------------------------------------------------| 
D|11-13-11-15-11-13-11-15-11-13-11-15-11-13-11-15-11-13-11-15-11-13-11-15-11-13-11-15-11-13-11-15-11-13-15| 
A|--------------------------------------------------------------------------------------------------------| 
E|--------------------------------------------------------------------------------------------------------| 

e|--------------------------------------------------------------------------------------| 
B|--------------------------------------------------------------------------------------| 
G|--------------------------------------------------------------------------------------| 
D|11-13-11-15-11-13-11-15-11-13-11-15-11-13-11-15-11-13-11-15-11-13-11-15-11-13-11-15-15| 
A|--------------------------------------------------------------------------------------| 
E|--------------------------------------------------------------------------------------| 


Breakdown 

e|--------------------------------------------------------------------------| 
B|--------------------------------------------------------------------------| 
G|-------------13/15-13--13-----13------------------13/15-13--13-----13-----| 
D|--11-13/15-----------15--15-15--15-13---11-13/15----------15--15-15--15-13| 
A|13--------13--------------------------13--------13------------------------| 
E|--------------------------------------------------------------------------| 

e|--------------------------------------------------------------------------| 
B|--------------------------------------------------------------------------| 
G|-------------13/15-13--13-----13------------------13/15-13--13-----13-----| 
D|--11-13/15-----------15--15-15--15-13---11-13/15----------15--15-15--15-13| 
A|13--------13--------------------------13--------13------------------------| 
E|--------------------------------------------------------------------------| 

e|--------------------------------------------------------------------------| 
B|--------------------------------------------------------------------------| 
G|-------------13/15-13--13-----13------------------13/15-13--13-----13-----| 
D|--11-13/15-----------15--15-15--15-13---11-13/15----------15--15-15--15-13| 
A|13--------13--------------------------13--------13------------------------| 
E|--------------------------------------------------------------------------| 

e|--------------------------------------------------------------------------| 
B|--------------------------------------------------------------------------| 
G|-------------13/15-13--13-----13------------------13/15-13--13-----13-----| 
D|--11-13/15-----------15--15-15--15-13---11-13/15----------15--15-15--15-13| 
A|13--------13--------------------------13--------13------------------------| 
E|--------------------------------------------------------------------------| 

e|--------------------------------------------------------------------------| 
B|--------------------------------------------------------------------------| 
G|-------------13/15-13--13-----13------------------13/15-13--13-----13-----| 
D|--11-13/15-----------15--15-15--15-13---11-13/15----------15--15-15--15-13| 
A|13--------13--------------------------13--------13------------------------| 
E|--------------------------------------------------------------------------| 

e|--------------------------------------------------------------------------| 
B|--------------------------------------------------------------------------| 
G|-------------13/15-13--13-----13------------------13/15-13--13-----13-----| 
D|--11-13/15-----------15--15-15--15-13---11-13/15----------15--15-15--15-13| 
A|13--------13--------------------------13--------13------------------------| 
E|--------------------------------------------------------------------------| 

e|----------------------------------------------------------------------------| 
B|----------------------------------------------------------------------------| 
G|11h13-11\10b--11h13-11\10b--11h13-13--11h13-11\10b--11h13-11\10b--11h13-13--| 
D|----------------------------------------------------------------------------| 
A|----------------------------------------------------------------------------| 
E|----------------------------------------------------------------------------| 

e|----------------------------------------------------------------------------| 
B|----------------------------------------------------------------------------| 
G|11h13-11\10b--11h13-11\10b--11h13-13--11h13-11\10b--11h13-11\10b--11h13-13--| 
D|----------------------------------------------------------------------------| 
A|----------------------------------------------------------------------------| 
E|----------------------------------------------------------------------------| 

e|----------------------------------------------------------------------------| 
B|----------------------------------------------------------------------------| 
G|11h13-11\10b--11h13-11\10b--11h13-13--11h13-11\10b--11h13-11\10b--11h13-13--| 
D|----------------------------------------------------------------------------| 
A|----------------------------------------------------------------------------| 
E|----------------------------------------------------------------------------| 

e|----------------------------------------------------------------------------| 
B|----------------------------------------------------------------------------| 
G|11h13-11\10b--11h13-11\10b--11h13-13--11h13-11\10b--11h13-11\10b--11h13-13--| 
D|----------------------------------------------------------------------------| 
A|----------------------------------------------------------------------------| 
E|----------------------------------------------------------------------------| 


Drop  

Pm 
e|-----------------------------------------------------------------------------------------------------------| 
B|-----------------------------------------------------------------------------------------------------------| 
G|-----------------------------------------------------------------------------------------------------------| 
D|11-13-11-15-11-13-11-15-11-13-11-15-11-13-11-15-11-13-11-15-11-13-11-15-11-13-11-15-11-13-11-15-11-13-15-15| 
A|-----------------------------------------------------------------------------------------------------------| 
E|-----------------------------------------------------------------------------------------------------------| 


Verse 

e|--------------------------------------------------------------------------------------------------------| 
B|--------------------------------------------------------------------------------------------------------| 
G|--------------------------------------------------------------------------------------------------------| 
D|11-13-11-15-11-13-11-15-11-13-11-15-11-13-11-15-11-13-11-15-11-13-11-15-11-13-11-15-11-13-11-15-11-13-15| 
A|--------------------------------------------------------------------------------------------------------| 
E|--------------------------------------------------------------------------------------------------------| 

e|--------------------------------------------------------------------------------------| 
B|--------------------------------------------------------------------------------------| 
G|--------------------------------------------------------------------------------------| 
D|11-13-11-15-11-13-11-15-11-13-11-15-11-13-11-15-11-13-11-15-11-13-11-15-11-13-11-15-15| 
A|--------------------------------------------------------------------------------------| 
E|--------------------------------------------------------------------------------------| 


Outro 

e|----------------------------------------------------------------------------| 
B|----------------------------------------------------------------------------| 
G|11h13-11\10b--11h13-11\10b--11h13-13--11h13-11\10b--11h13-11\10b--11h13-13--| 
D|----------------------------------------------------------------------------| 
A|----------------------------------------------------------------------------| 
E|----------------------------------------------------------------------------| 

e|----------------------------------------------------------------------------| 
B|----------------------------------------------------------------------------| 
G|11h13-11\10b--11h13-11\10b--11h13-13--11h13-11\10b--11h13-11\10b--11h13-13--| 
D|----------------------------------------------------------------------------| 
A|----------------------------------------------------------------------------| 
E|----------------------------------------------------------------------------| 

e|----------------------------------------------------------------------------| 
B|----------------------------------------------------------------------------| 
G|11h13-11\10b--11h13-11\10b--11h13-13--11h13-11\10b--11h13-11\10b--11h13-13--| 
D|----------------------------------------------------------------------------| 
A|----------------------------------------------------------------------------| 
E|----------------------------------------------------------------------------| 

e|----------------------------------------------------------------------------| 
B|----------------------------------------------------------------------------| 
G|11h13-11\10b--11h13-11\10b--11h13-13--11h13-11\10b--11h13-11\10b--11h13-13--| 
D|----------------------------------------------------------------------------| 
A|----------------------------------------------------------------------------| 
E|----------------------------------------------------------------------------| 

e|-------------------------------------| 
B|-------------------------------------| 
G|11h13-11\10b--11h13-11\10b--11h13-13-| 
D|-------------------------------------| 
A|-------------------------------------| 
E|-------------------------------------| 


************************************ 

|Pm   Palm muted 
| h   Hammer-on 
| b   Bend 
| /   Slide up 
| \   Slide down  

************************************ 
	  

Search Paypal
auto scroll beats size up size down change color hide chords drawings
tab show chords e-chords YouTube Clip e-chords hide all tabs e-chords go to top tab