Misc Your Songs

home > Misc Your Songs

Spooky Scary Skeletons Tab

Misc Your Songs

Difficulty: nolevelnolevel

by tamamoreira

tuner correct add songbook print version text version save to e-mail
chordsukulelecavacokeyboardtabbassdrumsharmonicsflute Guitar Pro
chords

Spooky Scary Skeletons

  		
G F# Bm F#m7 

 

   G                  F#                Bm 
E -------3-----------------2-----------------2------------------------------ 
B ----3-----3-----------2-----2-----------3-----3-----3-----------------3--- 
G -0--------------0--3--------------3--4-----------4-----4-----------4------ 
D ----------------------------------------------------------4-----4--------- 
A -------------------------------------2-----------------------2------------ 
E -3-----------------2------------------------------------------------------ 

   G                  F#                Bm       F#       Bm       F#m7 
E -------3-----------------2--------------2--------------------------2------ 
B ----3-----3-----3-----2-----2-----2----3---------2--------3-------2------- 
G -0-----------0-----3-----------3------4---------3--------4-------2-------- 
D -----------------------------------------------4--------4----------------- 
A -------------------------------------2--------4--------2--------4--------- 
E -3-----------------2------------------------------------------------------ 

   G                  F#                Bm 
E -------3-----------------2-----------------2------------------------------ 
B ----3-----3-----------2-----2-----------3-----3-----3-----------------3--- 
G -0--------------0--3--------------3--4-----------4-----4-----------4------ 
D ----------------------------------------------------------4-----4--------- 
A -------------------------------------2-----------------------2------------ 
E -3-----------------2------------------------------------------------------ 

   G                  F#                Bm       F#       Bm 
E -------3-----------------2--------------2--------------------------------- 
B ----3-----3-----3-----2-----2----------3---------------------------------- 
G -0-----------0-----3--------------3---4----------3--------4--------------- 
D ------------------------------------------------4--------4---------------- 
A -------------------------------------2---------4--------2----------------- 
E -3-----------------2--------------------------2--------2------------------ 



Chorus has the same chord progression, however, the picking is different... 

To play the Chorus, do this:  

   G                F#              Bm              F# 
E ---------3---------------2---------------2---------------2---------------- 
B ---------3---------------2---------------3---------------2---------------- 
G ------0-------0-------3-------3-------4-------4-------3-------3----------- 
D -------------------------------------------------------------------------- 
A ---------------------------------2---------------------------------------- 
E -3---------------2-------------------------------2------------------------ 

   G                F#              Bm      F#      Bm      F#m7 
E ---------3---------------2----------2-----------------------2------------- 
B ---------3---------------2---------3--------2-------3------2-------------- 
G ------0-------0-------3-------3---4--------3-------4------2--------------- 
D ------------------------------------------4-------4----------------------- 
A ---------------------------------2-------4-------2-------4---------------- 
E -3---------------2-------------------------------------------------------- 

   G                F#              Bm               F# 
E ---------3---------------2---------------2---------------2---------------- 
B ---------3---------------2---------------3---------------2---------------- 
G ------0-------0-------3-------3-------4-------4-------3-------3----------- 
D -------------------------------------------------------------------------- 
A ---------------------------------2---------------------------------------- 
E -3---------------2--------------------------------2----------------------- 

   G                F#              Bm      F#       Bm 
E ---------3---------------2----------2------------------------------------- 
B ---------3---------------2---------3-------------------------------------- 
G ------0-------0-------3-------3---4---------3--------4-------------------- 
D -------------------------------------------4--------4--------------------- 
A ---------------------------------2--------4--------2---------------------- 
E -3---------------2-----------------------2--------2----------------------- 



The verse has a much different chord progression... 

D A Bm G E C Db F# 


To play the verse, play this: 

   D                                A 
E ---------2---------------3---------------0---------------0---------------- 
B ---------3---------------2---------------2---------------2---------------- 
G ------2-------2-------2-------2-------2-------2-------2-------2----------- 
D -0---------------0-------------------------------------------------------- 
A ---------------------------------0---------------0------------------------ 
E -------------------------------------------------------------------------- 

   Bm                               G 
E ---------2---------------2---------------3---------------3---------------- 
B ---------3---------------3---------------3---------------3---------------- 
G ------4-------4-------4-------4-------0-------0-------0-------0----------- 
D -------------------------------------------------------------------------- 
A -2---------------2-------------------------------------------------------- 
E ---------------------------------3---------------3------------------------ 

   E                                C 
E ---------0---------------0---------------0--------------0----------------- 
B ---------0---------------0---------------1--------------1----------------- 
G ------1-------1-------1-------1-------0-------0------0-------0------------ 
D -------------------------------------------------------------------------- 
A ---------------------------------3---------------3------------------------ 
E -0---------------0-------------------------------------------------------- 

   Db                               F# 
E ---------1---------------1-------2---2---2-------------------------------- 
B ---------2---------------2-------2---2---2-------------------------------- 
G ------1-------1-------1-------1--3---3---3-------------------------------- 
D -0---------------0---------------4---------------------------------------- 
A ---------------------------------4---------------------------------------- 
E ---------------------------------2---------------------------------------- 



Now that you know all the parts, you need the list of what is where... 

LIST: 

Intro 
Chorus (2x) 
Verse 
Chorus 
Intro 
Verse 
Chorus (2x) 
Intro 



Please rate fairly 
	  

Full key step upFull key step up
Half key step upHalf key step up
Half key step downHalf key step down
Full key step downFull key step down
Search Paypal
auto scroll beats size up size down change color hide chords drawings
tab show chords e-chords YouTube Clip e-chords hide all tabs e-chords go to top tab