Misc Your Songs

home > Misc Your Songs

Sharky - Victorious Tab

Misc Your Songs

Difficulty: nolevelnolevel

by terr%5Fschmitz

tuner correct add songbook print version text version save to e-mail
chordsukulelecavacokeyboardtabbassdrumsharmonicsflute Guitar Pro
chords

Sharky - Victorious

  		 

Intro:
       e|------------------------------------------------------------------| 
       B|------------------------------------------------------------------| 
       G|-----------------6-xxx-xx---------------------------------4-4-xxxx| X2 
       D|-7-xxx-xx9-xxx-xx6-xxx-xx----7-6-7777777777777777-2-2-xxx-4-4-xxxx| 
       A|-7-xxx-xx9-xxx-xx4-xxx-xx6-7-----7777777777777777-2-2-xxx-2-2-xxxx| 
       E|-5-xxx-xx7-xxx-xx----------------5555555555555555-0-0-xxx---------| 

Verse: e|------------------------------------------------------------------| 
       B|-------------------------------------------------------------7----| 
       G|-66666666---------66666666-------------------------------------9~-| 
       D|-66666666-4-----6-66666666-4-------77777777---------77777777------| 
       A|-44444444---6-7---44444444---6-7-4-77777777---6-7-6-77777777------| 
       E|-----------------------------------55555555-7-------55555555------| 

       e|--------------------------------------------------------------| 
       B|--------------------------------------------------------------| 
       G|-6-6-6-6-6-4-----6-6-6-6--------------------------------------| 
       D|-6-6-6-6-----6-4-6-6-6-6-----------------------------------9~-| 
       A|-4-4-4-4---------4-4-4-4-0-2-4~-7-7-7-7-7-6---6-7-7-7-7--67---| 
       E|--------------------------------5-5-5-5-----7---5-5-5-5-7-----| 

Pre-Chorus e|---------------------------------| 
            B|---------------------------------| 
            G|-------------------6-4-----------| 
            D|-4~-----4~-7777777-6-4-4~-6~-7-9-| 
            A|-4~---4----7777777-4-2-4~-6~-7-9-| 
            E|-2~-2------5555555-----2~-4~-5-7-| 

Chorus: e|---------------------------------| 
        B|---------------------------------| 
        G|-6-4-----4-4---------------------| X3 
        D|-6---6-4-4---4---7-7-777-9-9-999-| 
        A|-4-------2-----2-7-7-777-9-9-999-| 
        E|-----------------5-5-555-7-7-777-| 

        e|-----------------------| 
        B|-----------------------| 
        G|-----------------------| 
        D|-7-777-777-777-779~-4~-| 
        A|-7-777-777-777-779~-4~-| 
        E|-5-555-555-555-557~-2~-| 

Pre-Verse: e|--------------------------------------------------------------------------------| 
           B|--------------------------------------------------------------------------------| 
           G|-------------6------------------------------------------------------------6-6-6-| 
           D|---------6----------------------------------------------------------7~-9~-6-6-6-| 
           A|-4444444---4---4-44444444-9-7-6-4-222222222222-4-6---------44442222-7~-9~-4-4-4-| 
           E|---------------------------------------------------7777777----------5~-7~-------| 

Verse: e|------------------------------------------------------------------| 
       B|-------------------------------------------------------------7----| 
       G|-66666666---------66666666-------------------------------------9~-| 
       D|-66666666-4-----6-66666666-4-------77777777---------77777777------| 
       A|-44444444---6-7---44444444---6-7-4-77777777---6-7-6-77777777------| 
       E|-----------------------------------55555555-7-------55555555------| 

       e|--------------------------------------------------------------| 
       B|--------------------------------------------------------------| 
       G|-6-6-6-6-6-4-----6-6-6-6--------------------------------------| 
       D|-6-6-6-6-----6-4-6-6-6-6-----------------------------------9~-| 
       A|-4-4-4-4---------4-4-4-4-0-2-4~-7-7-7-7-7-6---6-7-7-7-7--67---| 
       E|--------------------------------5-5-5-5-----7---5-5-5-5-7-----| 

Pre-Chorus e|---------------------------------| 
            B|---------------------------------| 
            G|-------------------6-4-----------| 
            D|-4~-----4~-7777777-6-4-4~-6~-7-9-| 
            A|-4~---4----7777777-4-2-4~-6~-7-9-| 
            E|-2~-2------5555555-----2~-4~-5-7-| 

Chorus: e|---------------------------------| 
        B|---------------------------------| 
        G|-6-4-----4-4---------------------| X3 
        D|-6---6-4-4---4---7-7-777-9-9-999-| 
        A|-4-------2-----2-7-7-777-9-9-999-| 
        E|-----------------5-5-555-7-7-777-| 

        e|-----------------------| 
        B|-----------------------| 
        G|-----------------------| 
        D|-7-777-777-777-779~-4~-| 
        A|-7-777-777-777-779~-4~-| 
        E|-5-555-555-555-557~-2~-| 

Bridge: e|-----------------------------------------------------------| 
        B|-----------------------------------------------------------| 
        G|-666~-x-x-666-666-666-666-666------------------------------| 
        D|-666~-x-x-666-666-666-666-666-777~-x-x-777-777-777-777-999-| 
        A|-444~-x-x-444-444-444-444-444-777~-x-x-777-777-777-777-999-| 
        E|------------------------------555~-x-x-555-555-555-555-777-| 

(Pause for 3 seconds) 

Solo: e|--------------------------------------------------| 
      B|--------------------------------------------------| 
      G|---------------------------------------6-8-9-8----| 
      D|---------------90706040607060406~-7-9~---------9~-| 
      A|-4~-06070907060-----------------------------------| 
      E|--------------------------------------------------| 

      e|------------------------------------------------------| 
      B|------------------------------------------------------| 
      G|------------------------------------------------------| 
      D|------------------------------------------------------| 
      A|-----------------------------------------7~-6-4~------| 
      E|-5-5555555-7-7777777-8-8888888-9-9999999---------5-7~-| 

Break: e|-------------------------| 
       B|-------------------------| 
       G|-------------2~-4~-5~-5~-| 
       D|-7~-6~-4~-2~-2~-4~-5~-5~-| 
       A|-7~-6~-4~-2~-0~-2~-3~-3~-| 
       E|-5~-4~-2~-0~-------------| 

Chorus: e|---------------------------------| 
        B|---------------------------------| 
        G|-6-4-----4-4---------------------| X3 
        D|-6---6-4-4---4---7-7-777-9-9-999-| 
        A|-4-------2-----2-7-7-777-9-9-999-| 
        E|-----------------5-5-555-7-7-777-| 

        e|-----------------------| 
        B|-----------------------| 
        G|-----------------------| 
        D|-7-777-777-777-779~-4~-| 
        A|-7-777-777-777-779~-4~-| 
        E|-5-555-555-555-557~-2~-| 

Outro: e|-------| 
       B|-------| 
       G|-6-46~-| 
       D|-6-46~-| 
       A|-4-24~-| 
       E|-------| 
	  

Search Paypal
auto scroll beats size up size down change color hide chords drawings
tab show chords e-chords YouTube Clip e-chords hide all tabs e-chords go to top tab