Misc Your Songs

home > Misc Your Songs

Sharky - Randomness Pt 1 Tab

Misc Your Songs

Difficulty: nolevelnolevel

by deivcavalcanti

tuner correct add songbook print version text version save to e-mail
chordsukulelecavacokeyboardtabbassdrumsharmonicsflute Guitar Pro
chords

Sharky - Randomness Pt 1

  		
e|-----------------------------------------------------------| 
B|-----------------------------------------------------------| 
G|-----------------------------------------------------------| 
D|-----------------------------------------------------------| 
A|-------4-5-7-5-4-------4-5-7-5~-------4-5-7-5-4-5-7-5-4----| 
E|-55555-----------55555----------55555-------------------5~-| 

e|--------------------------------------------------------| 
B|--------------------------------------------------------| 
G|---------------55----77--------------------55----77-----| 
D|-77------------55----77----77--------------55----77-----| 
A|-77------------33333355555577--------------333333555555-| 
E|-55555555555555------------5555555555555555-------------| 

e|-----------------------------------------------------------------------------------------------| 
B|-----------------------------------------------------------------------------------------------| 
G|-----------------------------------------------------------------------------------------------| 
D|----------------------------------------------------------------------------3------------------| 
A|-7-5-7-5-7-5-3-5-7~-7-5-7-5-7-5-3-5-2~------------------------------3-5-3-5---5-3-5-3-5-3-5-3~-| 
E|---------------------------------------3-3-5-5-7-7-5-5-3-3-2-2-3-5~----------------------------| 

e|-------------------------------------------------------| 
B|-------------------------------------------------------| 
G|-------------------------------------------55----------| 
D|-77-------------55-----3355-77-------------55-----5533-| 
A|-77-------------55-----3355-77-------------33-x-x-5533-| 
E|-55-x-x-xxx-xxx-33-x-x-1133-55-x-x-xxx-xxx--------3311-| 

e|-----------------------------------------------------| 
B|-----------------------------------------------------| 
G|-----------------------------------------------------| 
D|-------5------------5------------7------------9------| 
A|---5-------5~---5-------5~---7-------7~---9-------9~-| 
E|-3---3---3----3---3---3----5---5---5----7---7---7----| 

e|-----------------------------------| 
B|-----------------------------------| 
G|----------7~-5~-7~-----------------| 
D|-5~-4~-2~-7~-5~-7~-2-2-2-2-2-2-2-2-| 
A|-5~-4~-2~-5~-3~-5~-2-2-2-2-2-2-2-2-| 
E|-3~-2~-0~----------0-0-0-0-0-0-0-0-| 

e|-7-5-7-9-7-9/10\9/10/12~-13~-15~-17~-17\0-| <--- ten, not one and zero; twelve, not one and two; etc. 
B|------------------------------------------| 
G|------------------------------------------| 
D|------------------------------------------| 
A|------------------------------------------| 
E|------------------------------------------|  
	  

Search Paypal
auto scroll beats size up size down change color hide chords drawings
tab show chords e-chords YouTube Clip e-chords hide all tabs e-chords go to top tab