Misc Your Songs

Serpent Reich - Visions Of Evil Tab

Misc Your Songs

Difficulty: nolevelnolevel

by paulantunes

tuner correct add songbook print version text version save to e-mail
chordsukulelecavacokeyboardtabbassdrumsharmonicsflute Guitar Pro
close

there isn't a video lesson for this song

request
chords

Serpent Reich - Visions Of Evil

  		Intro 

e|----------------------------------------------| 
B|----------------------------------------------| 
G|----9----8----11----7----9----8----11----5----| 
D|----9----6----11----7----9----6----11----5----| x4 
A|----7----6----9-----5----7----6----9-----3----| 
E|----------------------------------------------| 

e|-----------------------------------------------------------| 
B|-----------------------------------------------------------| 
G|-----9--9--8--8--11--11--7--7--9--9--8--6--11--11--5--5----| 
D|-----9--9--8--8--11--11--7--7--9--9--6--8--11--11--5--3----| x2 
A|-----7--7--6--6--9---9---5--5--7--7--6--6--9---9---3--3----| 
E|-----------------------------------------------------------| 


verse 1 

e|-----------------------------------------------------------| 
B|-----------------------------------------------------------| 
G|--5"----------7"----------5"----------7"-------------------| x2 
D|--5"--5"--6"--7"--8"--7"--5"--5"--6"--7"--8"-7"------------| 
A|--3"----------5"----------3"----------5"--------6"--5"-----| 
E|-----------------------------------------------------------| 

Chorus 

e|----------------------------------| 
B|----------------------------------| 
G|--5"----4"----5"----7"--5"--2"----| 
D|--3"----4"----5"----5"--5"--4"----| x4 
A|--3"----2"----3"----5"--3"--4"----| 
E|----------------------------------| 



verse 2 

e|-----------------------------------------------------------| 
B|-----------------------------------------------------------| 
G|--5"----------7"----------5"----------7"-------------------| x2 
D|--5"--5"--6"--7"--8"--7"--5"--5"--6"--7"--8"-7"------------| 
A|--3"----------5"----------3"----------5"--------6"--5"-----| 
E|-----------------------------------------------------------| 


Chorus 

e|----------------------------------| 
B|----------------------------------| 
G|--5"----4"----5"----7"--5"--2"----| 
D|--3"----4"----5"----5"--5"--4"----| x4 
A|--3"----2"----3"----5"--3"--4"----| 
E|----------------------------------| 


verse 3 

e|-----------------------------------------------------------| 
B|-----------------------------------------------------------| 
G|--5"----------7"----------5"----------7"-------------------| x2 
D|--5"--5"--6"--7"--8"--7"--5"--5"--6"--7"--8"-7"------------| 
A|--3"----------5"----------3"----------5"--------6"--5"-----| 
E|-----------------------------------------------------------| 


Bridge 

e|-----------------------------------------| 
B|-----------------------------------------| 
G|--9"----------------9"-------------------| 
D|--7"--8"--9"--------7"--8"--9"-----------| x2 
A|--7"---------9"--8"-7"---------9"--8"----| 
E|-----------------------------------------| 

e|------------------------------------------------------| 
B|------------------------------------------------------| 
G|----9"----8"----11"----7"----9"----8"----11"----5"----| 
D|----9"----6"----11"----7"----9"----6"----11"----5"----| x4 
A|----7"----6"----9"-----5"----7"----6"----9"-----3"----| 
E|------------------------------------------------------| 


Outro 
e|--------------------------------------------------------------| 
B|--------------------------------------------------------------| 
G|-----9--9--8--8--11--11--7--7--9--9--8--6--11--11--5--5--4----| 
D|-----9--9--8--8--11--11--7--7--9--9--6--8--11--11--5--3--4----| x2 
A|-----7--7--6--6--9---9---5--5--7--7--6--6--9---9---3--3--2----| 
E|--------------------------------------------------------------| 



************************************ 

| "  Tremolo pick  

************************************ 
	  

Search Paypal
auto scroll beats size up size down change color hide chords drawings
tab show chords e-chords YouTube Clip e-chords hide all tabs e-chords go to top tab

share with facebook