Misc Your Songs

home > Misc Your Songs

Richard Fryer -beguiling Woman Tab

Misc Your Songs

Difficulty: nolevelnolevel

by paulantunes

tuner correct add songbook print version text version save to e-mail
chordsukulelecavacokeyboardtabbassdrumsharmonicsflute Guitar Pro
chords

Richard Fryer -beguiling Woman

  		

Tuning:Standard 

Intro: 

e|---------------------------------------------------------------------------| 
B|---------------------------------------------------------------------------| 
G|-11--11-11-9-9-12-12-12-12-11-9-------14-14------11-11-9-9-----------------| 
D|--------------------------------12-12---------------------12---------------| 
A|-------------------------------------------12-12---------------------------| 
E|---------------------------------------------------------------------------| 

verse 1: 

e|-----------------------------------------------------------------------------------------------| 
B|--------------------------------10-10-7--------------------------------------------------------| 
G|----7-9-11-11-11-11-9-7-----7-9--------9-7---------9-11-9-9---------------9-11-9-11-9----------| 
D|9-9---------------------9-9----------------9-9-9-11---------11-9-7-9-9-11-------------11-9-7---| (X3) 
A|-----------------------------------------------------------------------------------------------| 
E|-----------------------------------------------------------------------------------------------| 

Chorus: 

e|-------------------------------------------------13-10---------------------| 
B|------------10-13-13-10-----------------10-13-13---------------------------| 
G|------10-12------------12-10------10-12------------------------------------| 
D|12-12-----------------------12-12------------------------------------------|(X3) 
A|---------------------------------------------------------------------------| 
E|---------------------------------------------------------------------------| 

End Chorus: 

e|-13-10---------------------------------------------------------------------| 
B|---------------------------------------------------------------------------| 
G|---------------------------------------------------------------------------| 
D|---------------------------------------------------------------------------| 
A|---------------------------------------------------------------------------| 
E|---------------------------------------------------------------------------| 

****************************************************************************** 

Pattern: Intro, verse 1, Chorus, End Chorus, verse 1, Chorus, End Chorus 

****************************************************************************** 
	  

Search Paypal
auto scroll beats size up size down change color hide chords drawings
tab show chords e-chords YouTube Clip e-chords hide all tabs e-chords go to top tab