Misc Your Songs

home > Misc Your Songs

Lessons - Brian Davidson Fingerstyle Basics Tab

Misc Your Songs

Difficulty: nolevelnolevel

by alyslima

tuner correct add songbook print version text version save to e-mail
chordsukulelecavacokeyboardtabbassdrumsharmonicsflute Guitar Pro
chords

Lessons - Brian Davidson Fingerstyle Basics

  		Intro 
C |------0------0--h--2------2------------0------------0------------0-----------0------------0-----| 
G |------1------1--h--3------3--h--1------1------------0--h--1------1-----------0--h--1------1-----| 
D#|------2------0--h--2----2-2--h--2------2--h--1------1--h--2------2--h--1-----1--h--2------2-----|  into 
A#|----2------2----------0------h--2----2----h--2---------h--2----2----h--2--------h--2----2-------| repeat  
F |--0------3-------------------------0------h--2----2----------0------h--2----2---------0---------|  *3 
C |------------------------------------------------0-------------------------0---------------------| 

Verse 
C |-------0------0--h--2------2------------0--------0--h--2------2----------| 
G |-------1------1--h--3------3--h--1------1--------1--h--3------3--h--1----|  
D#|-------2------0--h--2----2-2--h--2------2------0-0--h--2----2-2--h--2----|     
A#|-----2------2----------0------h--2----2------2------------0------h--2----| 
F |---0------3-------------------------0------3-----------------------------| 
C |-------------------------------------------------------------------------| 

Chorus 
C |------0-------0-------0------0-------0------0------1-------0-------0------0--| 
G |------1-------1-------1------1-------1------1------0-------1-------1------1--| 
D#|------2-------0-----2-2------0-----2-2------0------0-------0-----2-2------0--| 
A#|----2-------2-----3--------2-----3--------2--------------2-----3--------2----| 
F |--0-------3--------------3--------------3--------2-----3--------------3------| 
C |-----------------------------------------------3-----------------------------| 

Verse 
C |-------0------0--h--2------2------------0--------0--h--2------2----------| 
G |-------1------1--h--3------3--h--1------1--------1--h--3------3--h--1----|  
D#|-------2------0--h--2----2-2--h--2------2------0-0--h--2----2-2--h--2----|     
A#|-----2------2----------0------h--2----2------2------------0------h--2----| 
F |---0------3-------------------------0------3-----------------------------| 
C |-------------------------------------------------------------------------| 

Chorus 
C |------0-------0-------0------0-------0------0------1-------0-------0------0--|repeat|--h--2------2-------| 
G |------1-------1-------1------1-------1------1------0-------1-------1------1--| *6   |--h--3------3--h--1-| 
D#|------2-------0-----2-2------0-----2-2------0------0-------0-----2-2------0--|      |--h--2----2-2--h--2-| 
A#|----2-------2-----3--------2-----3--------2--------------2-----3--------2----|      |--------0------h--2-| 
F |--0-------3--------------3--------------3--------2-----3--------------3------|      |--------------------| 
C |-----------------------------------------------3-----------------------------|      |--------------------| 

Outro 
C |------0------0--h--2------2------------0------------0------------0-----------0-----------------| 
G |------1------1--h--3------3--h--1------1------------0--h--1------1-----------0--h--1-----------| 
D#|------2------0--h--2----2-2--h--2------2--h--1------1--h--2------2--h--1-----1--h--2-----------|  outro 
A#|----2------2----------0------h--2----2----h--2---------h--2----2----h--2--------h--2-----------| repeat  
F |--0------3-------------------------0------h--2----2----------0------h--2----2------------------|  *3 
C |------------------------------------------------0-------------------------0--------------------| 


************************************ 

| h  Hammer-on 

************************************ 
	  

Search Paypal
auto scroll beats size up size down change color hide chords drawings
tab show chords e-chords YouTube Clip e-chords hide all tabs e-chords go to top tab