Misc Your Songs

home > Misc Your Songs

Laundromat - Love Song Tab

Misc Your Songs

Difficulty: nolevelnolevel

by aleffederico

tuner correct add songbook print version text version save to e-mail
chordsukulelecavacokeyboardtabbassdrumsharmonicsflute Guitar Pro
chords

Laundromat - Love Song

  		Intro x2 
Verse x2 
Chorus x1 
Intro x2 
Chorus x1 
Intro x2 
Verse x2 
Chorus x1 
Verse x2 (Slowed Down) 
Outro x2 (Slowed Down) 


Intro 

Guitar 1: 
e|-7--------4--------5--------7---------------------------| 
B|-9--------6--------5--------7---------------------------| 
G|-9--(x8)--6--(x8)--6--(x8)--8--(x8)---------------------|(x2) 
D|-9--------6--------7--------9---------------------------| 
A|-7--------4--------7--------9---------------------------| 
E|-------------------5--------7---------------------------| 

Guitar 2: 
e|-7-9-7----4-6-4----5-7-5----7-9-7-----------------------| 
B|-9-----9--6-----6--5-----5--7-----7---------------------| 
G|-9--------6--------6--------8---------------------------|(x2) 
D|--------------------------------------------------------| 
A|--------------------------------------------------------| 
E|--------------------------------------------------------| 

Bass: 
G|-----|---9-----6----------------------------------------| 
D|-----|---------------7------9---------------------------|(x2) 
A|----6|-7--7--4--4--------------6------------------------| 
E|7-9--|-------------5--5--7---9--------------------------| 


Verse 

Guitar 1: 
e|-7-------6--5---4--------5--------7---------------------| 
B|-9-------8--7---6--------5--------7---------------------| 
G|-9--(x5)-8--7---6--(x7)--6--(x8)--8--(x8)---------------|(x2) 
D|-9-------8--7---6--------7--------9---------------------| 
A|-7-------6--5---4--------7--------9---------------------| 
E|-------------------------5--------7---------------------| 

Guitar 2: 
e|-7-------9-7----4-6-4----5-7-5----7-9-7-----------------| 
B|-9-----------9--6-----6--5-----5--7-----7---------------| 
G|-9--------------6--------6--------8---------------------|(x2) 
D|--------------------------------------------------------| 
A|--------------------------------------------------------| 
E|--------------------------------------------------------| 

Bass: 
G|-----|---9-----6----------------------------------------| 
D|-----|---------------7------9---------------------------|(x2) 
A|----6|-7--7--4--4--------------6------------------------| 
E|7-9--|-------------5--5--7---9--------------------------| 


Chorus 

Guitar 1: 
e|-7--------7--------7--------4--------7--------4--------5---------7----------| 
B|-9--------8--------7--------4--------7--------4--------5---------7----------| 
G|-9--(x8)--9--(x8)--8--(x8)--5--(x8)--8--(x8)--5--(x8)--6--(x16)--8-(x8)-----|(x1) 
D|-9--------9--------9--------6--------9--------6--------7---------9----------| 
A|-7--------7--------9--------6--------9--------6--------7---------9----------| 
E|-------------------7--------4--------7--------4--------5---------7----------| 

Guitar 2: 
e|---797------797------797------464------787------454------575--------797-----| 
B|--9---9----8---8----7---7----4---4----7---7----4---4----5---5(x2)--7---7----| 
G|-9--------9--------8--------5--------8--------5--------6----------8---------|(x1) 
D|----------------------------------------------------------------------------| 
A|----------------------------------------------------------------------------| 
E|----------------------------------------------------------------------------| 

Bass: 
G|----------------------------------------------------------------------------| 
D|----------------------------------------------------------------------------|(x1) 
A|-7-7-7-77-------------------------------------------------------------------| 
E|------------7-7--7\4-4--4/7-7--7\4-4--4/5-5--5-5--5-5/7--7777---------------| 


Outro 

Guitar 1: 
e|-7--------4--------5--------7-------------------------------| 
B|-9--------6--------5--------7-------------------------------| 
G|-9--(x2)--6--(x2)--6--(x2)--8--(x2)-------------------------|(x2) 
D|-9--------6--------7--------9-------------------------------| 
A|-7--------4--------7--------9-------------------------------| 
E|-------------------5--------7-------------------------------| 

Guitar 2: 
e|-7---9----4---6----5---7----7---9---------------------------| 
B|-9---9----6---6----5---5----7---7---------------------------| 
G|-9---9----6---6----6---6----8---8---------------------------|(x2) 
D|------------------------------------------------------------| 
A|------------------------------------------------------------| 
E|------------------------------------------------------------| 

Bass: 
G|-----|---9--9--9------6--6--6-------------------------------| 
D|-----|----------------------------7--7--7-----9--9----------|(x2) 
A|----6|-7--7-----7---4--4-----4----------------------6-------| 
E|7-9--|---------------------------5--5-----5--7--7--9--------| 


************************************ 

| /   Slide up 
| \   Slide down 

************************************ 
	  

Search Paypal
auto scroll beats size up size down change color hide chords drawings
tab show chords e-chords YouTube Clip e-chords hide all tabs e-chords go to top tab