Misc Your Songs

home > Misc Your Songs

Keta Haru - Dharan Tab

Misc Your Songs

Difficulty: nolevelnolevel

by renejunior

tuner correct add songbook print version text version save to e-mail
chordsukulelecavacokeyboardtabbassdrumsharmonicsflute Guitar Pro
chords

Keta Haru - Dharan

  		
Intro 

e|----7------9-----5--------7-----2---------4/6--4---------------------------| 
B|-------9------------7--------------4---------------------------------------| 
G|---------9-------------8--------------4------------------------------------| 
D|---------------------------------------------------------------------------| 
A|---------------------------------------------------------------------------| 
E|---------------------------------------------------------------------------| 

e|----------6--9--7--2----1--4--1-------------------------4/6--4-------------| 
B|-----7/9-------------------------2-----4--7--4-----------------------------| 
G|------------------------------------------------4--------------------------| 
D|---------------------------------------------------------------------------| 
A|---------------------------------------------------------------------------| 
E|---------------------------------------------------------------------------| 



************************************ 

| /  Slide up 

************************************ 
	  

Search Paypal
auto scroll beats size up size down change color hide chords drawings
tab show chords e-chords YouTube Clip e-chords hide all tabs e-chords go to top tab