Misc Your Songs

home > Misc Your Songs

Isa Kwakkelaar - Forests Tab

Misc Your Songs

Difficulty: nolevelnolevel

by adalgomes

tuner correct add songbook print version text version save to e-mail
chordsukulelecavacokeyboardtabbassdrumsharmonicsflute Guitar Pro
chords

Isa Kwakkelaar - Forests

  		
Intro 

e|-----------3-----------3-----------5-----------5-----------3-----------3----| 
B|-----------3-----------3-----------3-----------3-----------3-----------3----| 
G|-----0------0----0------0-----0-----0----0------0----0------0----0------0---| 
D|----------------------------------------------------------------------------| 
A|----------------------------------------------------------------------------| 
E|--3-----3-----3-----3-----3-----3-----3-----3-----3-----3-----3-----3-----3-| 

e|-----------------------------------------------------------------------------------| 
B|-----------------------------------------0h1p0-------------------------------------| 
G|--------0h2-2h4p2---0------------------0---------0-----------0h2-2h4p0----------0--| 
D|----0-------------------0h2p0---0----0-------------0-----0---------------0h2p0-----| 
A|-----------------------------------3-----------3-------3---3-----3-----3------3---3| 
E|--3---3---3---3---3---3-------3----------------------------------------------------| 

e|-------------------------------------| 
B|----------0h1p0----------------------| 
G|------------------0h2p0--------------| 
D|-----0-------------------------------| 
A|-------------------------------------| 
E|--3-----3-------3--------------------| 



************************************ 

| h  Hammer-on 
| p  Pull-off 

************************************ 
	  

Search Paypal
auto scroll beats size up size down change color hide chords drawings
tab show chords e-chords YouTube Clip e-chords hide all tabs e-chords go to top tab