Misc Your Songs

home > Misc Your Songs

Hans Philip - Dagdrøm1 Tab

Misc Your Songs

Difficulty: nolevelnolevel

by VsWorld

tuner correct add songbook print version text version save to e-mail
chordsukulelecavacokeyboardtabbassdrumsharmonicsflute Guitar Pro
chords

Hans Philip - Dagdrøm1

  		Intro 

e|----7----7----5-------7------7------5-------5------5------5----3----3----3-| 
B|----5----5----5-------4------4------4-------3------3------3----5----5----5-| 
G|----5----5----5-------5------5------5-------4------4------4----4----4----4-| 
D|----5---------5-------5-------------5-------4-------------4----5---------5-| 
A|---------------------------------------------------------------------------| 
E|---------------------------------------------------------------------------| 

e|----7----7----5-------7------7------5-------5------5------5----4----4----4-| 
B|----5----5----5-------4------4------4-------3------3------3----3----3----3-| 
G|----5----5----5-------5------5------5-------4------4------4----4----4----4-| 
D|----5---------5-------5-------------5-------4-------------4----3---------3-| 
A|---------------------------------------------------------------------------| 
E|---------------------------------------------------------------------------| 

e|----7----7----5-------7------7------5-------5------5------5----3----3----3-| 
B|----5----5----5-------4------4------4-------3------3------3----5----5----5-| 
G|----5----5----5-------5------5------5-------4------4------4----4----4----4-| 
D|----5---------5-------5-------------5-------4-------------4----5---------5-| 
A|---------------------------------------------------------------------------| 
E|---------------------------------------------------------------------------| 

e|----7----7----5-------7------7------5-------5------5------5----4----4----4-| 
B|----5----5----5-------4------4------4-------3------3------3----3----3----3-| 
G|----5----5----5-------5------5------5-------4------4------4----4----4----4-| 
D|----5---------5-------5-------------5-------4-------------4----3---------3-| 
A|---------------------------------------------------------------------------| 
E|---------------------------------------------------------------------------| 


Verse 

e|----7----7----5-------7------7------5-------5------5------5----3----3----3-| 
B|----5----5----5-------4------4------4-------3------3------3----5----5----5-| 
G|----5----5----5-------5------5------5-------4------4------4----4----4----4-| 
D|----5---------5-------5-------------5-------4-------------4----5---------5-| 
A|---------------------------------------------------------------------------| 
E|---------------------------------------------------------------------------| 

e|----7----7----5-------7------7------5-------5------5------5----4----4----4-| 
B|----5----5----5-------4------4------4-------3------3------3----3----3----3-| 
G|----5----5----5-------5------5------5-------4------4------4----4----4----4-| 
D|----5---------5-------5-------------5-------4-------------4----3---------3-| 
A|---------------------------------------------------------------------------| 
E|---------------------------------------------------------------------------| 

e|----7----7----5-------7------7------5-------5------5------5----3----3----3-| 
B|----5----5----5-------4------4------4-------3------3------3----5----5----5-| 
G|----5----5----5-------5------5------5-------4------4------4----4----4----4-| 
D|----5---------5-------5-------------5-------4-------------4----5---------5-| 
A|---------------------------------------------------------------------------| 
E|---------------------------------------------------------------------------| 

e|----7----7----5-------7------7------5-------5------5------5----4----4----4-| 
B|----5----5----5-------4------4------4-------3------3------3----3----3----3-| 
G|----5----5----5-------5------5------5-------4------4------4----4----4----4-| 
D|----5---------5-------5-------------5-------4-------------4----3---------3-| 
A|---------------------------------------------------------------------------| 
E|---------------------------------------------------------------------------| 


Chorus 

e|----7----7----5-------7------7------5-------5------5------5----3----3----3-| 
B|----5----5----5-------4------4------4-------3------3------3----5----5----5-| 
G|----5----5----5-------5------5------5-------4------4------4----4----4----4-| 
D|----5---------5-------5-------------5-------4-------------4----5---------5-| 
A|---------------------------------------------------------------------------| 
E|---------------------------------------------------------------------------| 

e|----7----7----5-------7------7------5-------5------5------5----4----4----4-| 
B|----5----5----5-------4------4------4-------3------3------3----3----3----3-| 
G|----5----5----5-------5------5------5-------4------4------4----4----4----4-| 
D|----5---------5-------5-------------5-------4-------------4----3---------3-| 
A|---------------------------------------------------------------------------| 
E|---------------------------------------------------------------------------| 


verse 2 

e|----7----7----5-------7------7------5-------5------5------5----3----3----3-| 
B|----5----5----5-------4------4------4-------3------3------3----5----5----5-| 
G|----5----5----5-------5------5------5-------4------4------4----4----4----4-| 
D|----5---------5-------5-------------5-------4-------------4----5---------5-| 
A|---------------------------------------------------------------------------| 
E|---------------------------------------------------------------------------| 

e|----7----7----5-------7------7------5-------5------5------5----4----4----4-| 
B|----5----5----5-------4------4------4-------3------3------3----3----3----3-| 
G|----5----5----5-------5------5------5-------4------4------4----4----4----4-| 
D|----5---------5-------5-------------5-------4-------------4----3---------3-| 
A|---------------------------------------------------------------------------| 
E|---------------------------------------------------------------------------| 

e|----7----7----5-------7------7------5-------5------5------5----3----3----3-| 
B|----5----5----5-------4------4------4-------3------3------3----5----5----5-| 
G|----5----5----5-------5------5------5-------4------4------4----4----4----4-| 
D|----5---------5-------5-------------5-------4-------------4----5---------5-| 
A|---------------------------------------------------------------------------| 
E|---------------------------------------------------------------------------| 

e|----7----7----5-------7------7------5-------5------5------5----4----4----4-| 
B|----5----5----5-------4------4------4-------3------3------3----3----3----3-| 
G|----5----5----5-------5------5------5-------4------4------4----4----4----4-| 
D|----5---------5-------5-------------5-------4-------------4----3---------3-| 
A|---------------------------------------------------------------------------| 
E|---------------------------------------------------------------------------| 


Chorus 

e|----7----7----5-------7------7------5-------5------5------5----3----3----3-| 
B|----5----5----5-------4------4------4-------3------3------3----5----5----5-| 
G|----5----5----5-------5------5------5-------4------4------4----4----4----4-| 
D|----5---------5-------5-------------5-------4-------------4----5---------5-| 
A|---------------------------------------------------------------------------| 
E|---------------------------------------------------------------------------| 

e|----7----7----5-------7------7------5-------5------5------5----4----4----4-| 
B|----5----5----5-------4------4------4-------3------3------3----3----3----3-| 
G|----5----5----5-------5------5------5-------4------4------4----4----4----4-| 
D|----5---------5-------5-------------5-------4-------------4----3---------3-| 
A|---------------------------------------------------------------------------| 
E|---------------------------------------------------------------------------| 


Outro 

e|----7----7----5-------7------7------5-------5------5------5----3----3----3-| 
B|----5----5----5-------4------4------4-------3------3------3----5----5----5-| 
G|----5----5----5-------5------5------5-------4------4------4----4----4----4-| 
D|----5---------5-------5-------------5-------4-------------4----5---------5-| 
A|---------------------------------------------------------------------------| 
E|---------------------------------------------------------------------------| 

e|----7----7----5-------7------7------5-------5------5------5----4----4----4-| 
B|----5----5----5-------4------4------4-------3------3------3----3----3----3-| 
G|----5----5----5-------5------5------5-------4------4------4----4----4----4-| 
D|----5---------5-------5-------------5-------4-------------4----3---------3-| 
A|---------------------------------------------------------------------------| 
E|---------------------------------------------------------------------------| 

e|----7----7----5-------7------7------5-------5------5------5----3----3----3-| 
B|----5----5----5-------4------4------4-------3------3------3----5----5----5-| 
G|----5----5----5-------5------5------5-------4------4------4----4----4----4-| 
D|----5---------5-------5-------------5-------4-------------4----5---------5-| 
A|---------------------------------------------------------------------------| 
E|---------------------------------------------------------------------------| 

e|----7----7----5-------7------7------5-------5------5------5----4----4----4-| 
B|----5----5----5-------4------4------4-------3------3------3----3----3----3-| 
G|----5----5----5-------5------5------5-------4------4------4----4----4----4-| 
D|----5---------5-------5-------------5-------4-------------4----3---------3-| 
A|---------------------------------------------------------------------------| 
E|---------------------------------------------------------------------------| 
	  

Search Paypal
auto scroll beats size up size down change color hide chords drawings
tab show chords e-chords YouTube Clip e-chords hide all tabs e-chords go to top tab