Misc Your Songs

home > Misc Your Songs

Green Day - Boulevard Of Broken Dreams Metal Cover By Adams190 Tab

Misc Your Songs

Difficulty: nolevelnolevel

by terr%5Fschmitz

tuner correct add songbook print version text version save to e-mail
chordsukulelecavacokeyboardtabbassdrumsharmonicsflute Guitar Pro
chords

Green Day - Boulevard Of Broken Dreams Metal Cover By Adams190

  		
Intro 
  (Use tremolo effect)    X2 
e|-------------------------| 
B|-------------------------| 
G|-------------------3-----| 
D|-3-----6-----1-----3-----| 
A|-3-----6-----1-----1-----| 
E|-1-----4-----------------| 

verse 1 
Rhytm Guitar 
                                           PM|                  x2 
e|---------------------------------------------------------------| 
B|---------------------------------------------------------------| 
G|-----------------------------------------3-3--3----3-----------| 
D|-3----3--3-3-3/6--6--6--x-x--1----1--x-x-3-3--3----3-----------| 
A|-3----3--3-3-3/6--6--6--x-x--1----1--x-x-1-1--1----1-----------| 
E|-1----1--1-1-1/4--4--4--x-x------------------------------------| 

Lead Guitar 
                                                                x2 
e|---------------------------------------------------------------| 
B|---------------------------------------------------------------| 
G|---------------------------------------------------------------| 
D|----3--3--5--6/13--10~~~--10-8--6--8--6--8-8/10--8--6--3-------| 
A|---------------------------------------------------------------| 
E|---------------------------------------------------------------| 

Pre-Chorus 1 
Rhytm Guitar.                          1st.        2st. 
     PM------------------------------| PM-------| 
e|------------------------------------------------|--------------| 
B|------------------------------------------------|--------------| 
G|-------------------------------------3--3--3--3-|-3--3--3--3---| 
D|-3--3--3--3--6--6--6--6--1--1--1--1--3--3--3--3-|-3--3--3--3---| 
A|-3--3--3--3--6--6--6--6--1--1--1--1--1--1--1--1-|-1--1--1--1---| 
E|-1--1--1--1--4--4--4--4-------------------------|--------------| 

Lead Guitar 
                                       1st.        2st. 
e|------------------------------------|-----------|--------------| 
B|------------------------------------|-----------|--------------| 
G|------------------------------------|-----------|--------------| 
D|-3-----5--6~~----//10-8~~------5--6-|------6\\\-|--------------| 
A|------------------------------------|-----------|--------------| 
E|------------------------------------|-----------|--------------| 

Chorus 1 
Rhytm Guitar 
                                                                x3                  
e|---------------------------------------------------------------| 
B|---------------------------------------------------------------| 
G|-6--6--6--6----------------------------------------------------| 
D|-6--6--6--6--6--6--6--6--1--1--1--1--3--3--3--3----------------| 
A|-4--4--4--4--6--6--6--6--1--1--1--1--3--3--3--3----------------| 
E|-------------4--4--4--4--------------1--1--1--1----------------| 

Lead Guitar 
                                                                x3 
e|---------------------------------------------------------------| 
B|---------------------------------------------------------------| 
G|---------------------------------------------------------------| 
D|----///15-13~~--6------6h8--6--8--6--8/10--8--6----------------| 
A|---------------------------------------------------------------| 
E|---------------------------------------------------------------| 

Rhytm Guitar 
                              Pm-------| 
e|---------------------------------------------------------------| 
B|---------------------------------------------------------------| 
G|-6--6--6--6--------------5--5--5--5--5-------------------------| 
D|-6--6--6--6--6--6--6--6--5--5--5--5--5-------------------------| 
A|-4--4--4--4--6--6--6--6--3--3--3--3--3----S\\\\\\\\\\\\\\\-----| 
E|-------------4--4--4--4-------------------S\\\\\\\\\\\\\\\-----| 

Lead Guitar 

e|---------------------------------------------------------------| 
B|---------------------------------------------------------------| 
G|---------------------------------------------------------------| 
D|----///15-13~~--6------//15----10-10-10-10\\\\\\---------------| 
A|---------------------------------------------------------------| 
E|---------------------------------------------------------------| 

Pre-Verse 
Rhytm Guitar  
   PM---------------------|  PM----------------------| PM----------------------| PM----------------------| x2 
e|----------------------------------------------------------------------------------------------------------| 
B|----------------------------------------------------------------------------------------------------------| 
G|-------------------------------------------------------------------------------3-3-3--3--3--3-3-3--3--3---| 
D|-3-3-3--3--3--3-3-3--3--3--6-6-6--6--6--6-6-6--6--6--1-1-1--1--1--1-1-1--1--1--3-3-3--3--3--3-3-3--3--3---| 
A|-3-3-3--3--3--3-3-3--3--3--6-6-6--6--6--6-6-6--6--6--1-1-1--1--1--1-1-1--1--1--1-1-1--1--1--1-1-1--1--1---| 
E|-1-1-1--1--1--1-1-1--1--1--4-4-4--4--4--4-4-4--4--4-------------------------------------------------------| 

Lead Guitar 
                                                                                                           x2 
e|----------------------------------------------------------------------------------------------------------| 
B|----------------------------------------------------------------------------------------------------------| 
G|----------------------------------------------------------------------------------------------------------| 
D|-3-------------5-----6~~~~---------------8------6~~~---------------5------6~~~---------------8~~\\\\\-----| 
A|----------------------------------------------------------------------------------------------------------| 
E|----------------------------------------------------------------------------------------------------------| 

verse 2 
Rhytm Guitar 
                                           PM|                  x2 
e|---------------------------------------------------------------| 
B|---------------------------------------------------------------| 
G|-----------------------------------------3-3--3----3-----------| 
D|-3----3--3-3-3/6--6--6--x-x--1----1--x-x-3-3--3----3-----------| 
A|-3----3--3-3-3/6--6--6--x-x--1----1--x-x-1-1--1----1-----------| 
E|-1----1--1-1-1/4--4--4--x-x------------------------------------| 

Lead Guitar 
                                                                x2 
e|---------------------------------------------------------------| 
B|---------------------------------------------------------------| 
G|---------------------------------------------------------------| 
D|----3--3--5--6/13--10~~~--10-8--6--8--6--8-8/10--8--6--3-------| 
A|---------------------------------------------------------------| 
E|---------------------------------------------------------------| 

Pre-Chorus 2 
Rhytm Guitar 
     PM------------------------------| PM-------| 
e|---------------------------------------------------------------| 
B|---------------------------------------------------------------| 
G|-------------------------------------3--3--3--3----------------| 
D|-3--3--3--3--6--6--6--6--1--1--1--1--3--3--3--3----------------| 
A|-3--3--3--3--6--6--6--6--1--1--1--1--1--1--1--1----------------| 
E|-1--1--1--1--4--4--4--4----------------------------------------| 

Lead Guitar 
                                                
e|---------------------------------------------------------------| 
B|---------------------------------------------------------------| 
G|---------------------------------------------------------------| 
D|-3-----5--6~~----//10-8~~------5--6--------6\\\----------------| 
A|---------------------------------------------------------------| 
E|---------------------------------------------------------------| 

verse 3 
Rhytm Guitar 
                                           PM|                  x2 
e|---------------------------------------------------------------| 
B|---------------------------------------------------------------| 
G|-----------------------------------------3-3--3----3-----------| 
D|-3----3--3-3-3/6--6--6--x-x--1----1--x-x-3-3--3----3-----------| 
A|-3----3--3-3-3/6--6--6--x-x--1----1--x-x-1-1--1----1-----------| 
E|-1----1--1-1-1/4--4--4--x-x------------------------------------| 

Lead Guitar 
                                                                x2 
e|---------------------------------------------------------------| 
B|---------------------------------------------------------------| 
G|---------------------------------------------------------------| 
D|----3--3--5--6/13--10~~~--10-8--6--8--6--8-8/10--8--6--3-------| 
A|---------------------------------------------------------------| 
E|---------------------------------------------------------------| 

Pre-Chorus 
Rhytm Guitar  
   
   PM---------------------|  PM----------------------| PM----------------------| PM---------------------| 
e|----------------------------------------------------------------------------------------------------------| 
B|----------------------------------------------------------------------------------------------------------| 
G|-------------------------------------------------------------------------------3-3-3--3--3--3-3-3--3--3---| 
D|-3-3-3--3--3--3-3-3--3--3--6-6-6--6--6--6-6-6--6--6--1-1-1--1--1--1-1-1--1--1--3-3-3--3--3--3-3-3--3--3---| 
A|-3-3-3--3--3--3-3-3--3--3--6-6-6--6--6--6-6-6--6--6--1-1-1--1--1--1-1-1--1--1--1-1-1--1--1--1-1-1--1--1---| 
E|-1-1-1--1--1--1-1-1--1--1--4-4-4--4--4--4-4-4--4--4-------------------------------------------------------| 

Lead Guitar                                                                                                           
e|----------------------------------------------------------------------------------------------------------| 
B|----------------------------------------------------------------------------------------------------------| 
G|----------------------------------------------------------------------------------------------------------| 
D|-3-------------5-----6~~~~---------------8------6~~~---------------5------6~~~---------------8~~\\\\\-----| 
A|----------------------------------------------------------------------------------------------------------| 
E|----------------------------------------------------------------------------------------------------------| 

Rhytm Guitar  
    PM---------------------|  PM----------------------| PM----------------------| 
e|----------------------------------------------------------------------------------------------------------| 
B|----------------------------------------------------------------------------------------------------------| 
G|-------------------------------------------------------------------------------3--3--3--3-----------------| 
D|-3-3-3--3--3--3-3-3--3--3--6-6-6--6--6--6-6-6--6--6--1-1-1--1--1--1-1-1--1--1--3--3--3--3-----------------| 
A|-3-3-3--3--3--3-3-3--3--3--6-6-6--6--6--6-6-6--6--6--1-1-1--1--1--1-1-1--1--1--1--1--1--1-----------------| 
E|-1-1-1--1--1--1-1-1--1--1--4-4-4--4--4--4-4-4--4--4-------------------------------------------------------| 

Lead Guitar                                                                                                        
e|----------------------------------------------------------------------------------------------------------| 
B|----------------------------------------------------------------------------------------------------------| 
G|----------------------------------------------------------------------------------------------------------| 
D|-3-------------5-----6~~~~---------------8------6~~~---------------5------6~~~----------------------------| 
A|----------------------------------------------------------------------------------------------------------| 
E|----------------------------------------------------------------------------------------------------------| 

Chorus 2 
Rhytm Guitar 
                                                                x3                  
e|---------------------------------------------------------------| 
B|---------------------------------------------------------------| 
G|-6--6--6--6----------------------------------------------------| 
D|-6--6--6--6--6--6--6--6--1--1--1--1--3--3--3--3----------------| 
A|-4--4--4--4--6--6--6--6--1--1--1--1--3--3--3--3----------------| 
E|-------------4--4--4--4--------------1--1--1--1----------------| 

Lead Guitar 
                                                                x3 
e|---------------------------------------------------------------| 
B|---------------------------------------------------------------| 
G|---------------------------------------------------------------| 
D|----///15-13~~--6------6h8--6--8--6--8/10--8--6----------------| 
A|---------------------------------------------------------------| 
E|---------------------------------------------------------------| 

Rhytm Guitar 
                              Pm-------| 
e|---------------------------------------------------------------| 
B|---------------------------------------------------------------| 
G|-6--6--6--6--------------5--5--5--5--5-------------------------| 
D|-6--6--6--6--6--6--6--6--5--5--5--5--5-------------------------| 
A|-4--4--4--4--6--6--6--6--3--3--3--3--3-------------------------| 
E|-------------4--4--4--4----------------------------------------| 

Lead Guitar 
e|---------------------------------------------------------------| 
B|---------------------------------------------------------------| 
G|---------------------------------------------------------------| 
D|----///15-13~~--6------//15----10-10-10-10\\\\\\---------------| 
A|---------------------------------------------------------------| 
E|---------------------------------------------------------------| 

Verse with Radio effect 

Solo 
Rhytm Guitar                                                                            
e|---------------------------------------------------------------| 
B|---------------------------------------------------------------| 
G|-6--6--6--6----------------------------------------------------| 
D|-6--6--6--6--6--6--6--6--1--1--1--1--3--3--3--3----------------| 
A|-4--4--4--4--6--6--6--6--1--1--1--1--3--3--3--3----------------| 
E|-------------4--4--4--4--------------1--1--1--1----------------| 

Lead Guitar 
e|---------------------------------------------------------------| 
B|---------------------------------------------------------------| 
G|---------------------------------------------------------------| 
D|----///15-13~~--6------6h8--6h8p6-5-6---5----------------------| 
A|--------------------------------------8---8-6-8----------------| 
E|---------------------------------------------------------------| 

Rhytm Guitar                                                                                
e|--------------------------------------------------------------------------------| 
B|--------------------------------------------------------------------------------| 
G|-6----6----6----6---------------------------------------------------------------| 
D|-6----6----6----6----6----6----6----6----1----1----1----1----3----3----3----3---| 
A|-4----4----4----4----6----6----6----6----1----1----1----1----3----3----3----3---| 
E|---------------------4----4----4----4------------------------1----1----1----1---| 

Lead Guitar 
e|--------------------------------------------------------------------------------| 
B|--------------------------------------------------------------------------------| 
G|------------------------------13------------13-15b17b15-13/12-13p12----12-------| 
D|----------///15-13------13-15----15---13-15-------------------------15----13-13-| 
A|--------------------------------------------------------------------------------| 
E|--------------------------------------------------------------------------------| 

Rhytm Guitar 
e|---------------------------------------------------------------| 
B|---------------------------------------------------------------| 
G|-6--6--6--6----------------------------------------------------| 
D|-6--6--6--6--6--6--6--6--1--1--1--1--3--3--3--3----------------| 
A|-4--4--4--4--6--6--6--6--1--1--1--1--3--3--3--3----------------| 
E|-------------4--4--4--4--------------1--1--1--1----------------| 

Lead Guitar 
e|---------------------------------------------------------------| 
B|---------------------------------------------------------------| 
G|---------------------------------------------------------------| 
D|-15-------------6--6--8-/10-8----6-----------------------------| 
A|--------------------------------------8--8--6--8---------------| 
E|---------------------------------------------------------------| 

Rhytm Guitar 
                              Pm----------------| 
e|---------------------------------------------------------------| 
B|---------------------------------------------------------------| 
G|-6--6--6--6--------------5--5--5--5--5--5--5--5--5-------------| 
D|-6--6--6--6--6--6--6--6--5--5--5--5--5--5--5--5--5-------------| 
A|-4--4--4--4--6--6--6--6--3--3--3--3--3--3--3--3--3-------------| 
E|-------------4--4--4--4----------------------------------------| 

Lead Guitar 
e|---------------------------------------------------------------| 
B|---------------------------------------------------------------| 
G|---------------------------------------------------------------| 
D|-----------------------------------------8-6-------------------| 
A|----------------6--6--8--8-----------6----------8---8----------| 
E|---------------------------------------------------------------| 

Outro 
Rhytm Guitar 
e|---------------------------------------------------------------| 
B|---------------------------------------------------------------| 
G|-------------------------------------3--3--3--3----------------| 
D|-3--3--3--3--6--6--6--6--1--1--1--1--3--3--3--3----------------| 
A|-3--3--3--3--6--6--6--6--1--1--1--1--1--1--1--1----------------| 
E|-1--1--1--1--4--4--4--4----------------------------------------| 

Lead Guitar 
                                        
e|---------------------------------------------------------------| 
B|---------------------------------------------------------------| 
G|---------------------------------------------------------------| 
D|-3-----5--6~~----//10-8~~------5--6--------6\\\----------------| 
A|---------------------------------------------------------------| 
E|---------------------------------------------------------------| 

Rhytm Guitar 
                                                 Let Ring------| 
e|---------------------------------------------------------------| 
B|---------------------------------------------------------------| 
G|-------------------------------------3--3--3--3----------------| 
D|-3--3--3--3--6--6--6--6--1--1--1--1--3--3--3--3--3-------------| 
A|-3--3--3--3--6--6--6--6--1--1--1--1--1--1--1--1--3-------------| 
E|-1--1--1--1--4--4--4--4--------------------------1-------------| 

Lead Guitar 
                                                  Let Ring------|  
e|---------------------------------------------------------------| 
B|---------------------------------------------------------------| 
G|---------------------------------------------------------------| 
D|-3-----5--6~~----//10-8~~---8h10p8-6-5-6-5---------------------| 
A|-------------------------------------------8--6--8-------------| 
E|---------------------------------------------------------------| 
	  

Search Paypal
auto scroll beats size up size down change color hide chords drawings
tab show chords e-chords YouTube Clip e-chords hide all tabs e-chords go to top tab