Misc Your Songs

home > Misc Your Songs

Alexander Oleksyn - Alone Tab

Misc Your Songs

Difficulty: nolevelnolevel

by paulantunes

tuner correct add songbook print version text version save to e-mail
chordsukulelecavacokeyboardtabbassdrumsharmonicsflute Guitar Pro
chords

Alexander Oleksyn - Alone

  		

This is a song I wrote myself. It is also my first song on Ultimate Guitar so I hope you like it. 
Sorry in advance if I didn't us the right symbols or if the tab is confusing. 

In the parts where there are 2 dashes (-'s) between notes, you hold the first note a split second longer. 
"*" means no pause. 
e|------------------------------------------------------------------------------------------| 
B|------------------------------------------------------------------------------------------| 
G|------------------------------------------------------------------------------------------| 
D|------------------------------------------------------------------------------------------| 
A|---------------------------------------------------------------0-3-0-5-5-----0-3-0-5--3-0-| 
E|-0-3-0-5-5-----0-3-0-5--3-0-----0-3-0-5-5-----0-3-0-5--3-0--------------------------------| 

e|------------------------------------------------------------------------------------------| 
B|------------------------------------------------------------------------------------------| 
G|------------------------------------------------------------------------------------------| 
D|------------------------------------------------------------------------------------------| 
A|--------------------------------3-5-3-7-7-----0-3-0-5-5-----------------------------------| 
E|-0-3-0-5-5-----0-3-0-5--3-0---------------------------------0-3-0-5--3-0-----0-3-0-5--3-0-| 

e|------------------------------------------------------------------------------------------| 
B|------------------------------------------------------------------------------------------| 
G|-5-5-5-7--7-----5-5-5-----5-----5-5-5-7--7-----5-5-5-7--5-------5-5-5-5-5-5-5-5*----------| 
D|-5-5-5-7--7-----5-5-5--7--5-----5-5-5-7--7-----5-5-5-7--5-7-----5-5-5-5-5-5-5-5-----------| 
A|-3-3-3-5--5-----3-3-3--7--3-----3-3-3-5--5-----3-3-3-5--3-7-----3-3-3-3-3-3-3-3-----------| 
E|-----------------------5----------------------------------5-------------------------------| 

e|------------------------------------------------------------------------------------------| 
B|------------------------------------------------------------------------------------------| 
G|---------------------5-5-5-5-5-5-5-5-7----------------------------------------------------| 
D|-7-7-7-7-7-7-7-7*----5-5-5-5-5-5-5-5-7----------------------------------------------------| 
A|-7-7-7-7-7-7-7-7-----3-3-3-3-3-3-3-3-5----------------------------------------------------| 
E|-5-5-5-5-5-5-5-5--------------------------------------------------------------------------| 

Repeat that twice, then after the second time through add: 
e|------------------------------------------------------------------------------------------| 
B|------------------------------------------------------------------------------------------| 
G|-5----------------------------------------------------------------------------------------| 
D|-5-7--------------------------------------------------------------------------------------| 
A|-3-7--------------------------------------------------------------------------------------| 
E|---5--------------------------------------------------------------------------------------| 

And that's it. Change the ending if you want, and enjoy. 
	  

Search Paypal
auto scroll beats size up size down change color hide chords drawings
tab show chords e-chords YouTube Clip e-chords hide all tabs e-chords go to top tab