Misc Your Songs

home > Misc Your Songs

Adam Dempsey - My Song Tab

Misc Your Songs

Difficulty: nolevelnolevel

by hugo%5Frodrigues

tuner correct add songbook print version text version save to e-mail
chordsukulelecavacokeyboardtabbassdrumsharmonicsflute Guitar Pro
chords

Adam Dempsey - My Song

  		Intro 
Guitar 1: 
e|--------------------------------------------------------------------------------------------------------| 
B|--------------------------------------------------------------------------------------------------------| 
G|------------------------6---------------------------6---------------------------6-----------------------| 
D|----------7-----------7---7-----------7-----------7---7-----------7-----------7---7-------9--9---7-7----| 
A|------4-----------4---------------4-----------4---------------4-----------4-----------------------------| 
D|----4---4-------4---4-----------6---6-------6---6-----------7---7-------7---7-----------9--9----7-7-----|x4 


Intro 
Guitar 2: 
e|----+12+-----------+7+------------| 
B|---------+12+--------------+7+----| 
G|-----------------------+5+--------| 
D|----------------------------------| 
A|----------------------------------| 
D|----------------------------------|x4 


Pre-Chorus 
Guitar 1: 
e|-----------------------------------------------------------------------------------------------------| 
B|-----------------------------------------------------------------------------------------------------| 
G|-------------------------------------------------11--------------------------------------------------| 
D|----44x-44x-44x-44x-4------00x-00x-00x-00x-00----------44x-44x-44x-44x-4--------7-----0-----9--------| 
A|----44x-44x-44x-44x-4(x4)--00x-00x-00x-00x-00----9-----44x-44x-44x-44x-4(x4)----7(x8)-0(x4)-9(x4)----| 
D|----44x-44x-44x-44x-4------00x-00x-00x-00x-00----------44x-44x-44x-44x-4--------7-----0-----9--------|x2 
                                             ** 


Pre-Chorus 
Guitar 2: 
e|---------------------------------------| 
B|---------------------7--------5--------| 
G|----6-------7---------(x8)-----(x8)----| 
D|-----(x8)----(x8)----4--------2--------| 
A|----4-------5--------------------------| 
D|---------------------------------------|x2 
(Starts to play after the octave on 



Chorus 
Guitar 1: 
e|-----------------------------------------------------------------------------------------| 
B|-----------------------------------------------------------------------------------------| 
G|-------------------------------777-777-77-------------------------------777----999-99----| 
D|----4--------7--------9--------777-777-77----4--------7--------9--------777----999-99----| 
A|----4(x8)----7(x8)----9(x8)----555-555-55----4(x8)----7(x8)----9(x8)----555----777-77----| 
D|----4--------7--------9----------------------4--------7--------9-------------------------|X4 
      *        *        *        **  **  *     *        *        *        **     **  *   


Chorus 
Guitar 2: 
e|---------------------------------------------------------------------------| 
B|---------------------------------------------------------------------------| 
G|---------------------------------------------------------------------------| 
D|---------------------------------------------------------------------------| 
A|---------------------------------------------------------------------------| 
D|---------------------------------------------------------------------------| 



Verse 
Guitar 1: 
e|---------------------------------------------------------------------------| 
B|---------------------------------------------------------------------------| 
G|---------------------------------------------------------------------------| 
D|---------------------------------------------------------------------------| 
A|---------------------------------------------------------------------------| 
D|---------------------------------------------------------------------------| 


Verse 
Guitar 2: 
e|---------------------------------------------------------------------------| 
B|---------------------------------------------------------------------------| 
G|---------------------------------------------------------------------------| 
D|---------------------------------------------------------------------------| 
A|---------------------------------------------------------------------------| 
D|---------------------------------------------------------------------------| 



Chorus 
Guitar 1: 
e|---------------------------------------------------------------------------| 
B|---------------------------------------------------------------------------| 
G|-------------------------------777-777-77----------------------------------| 
D|----4--------7--------9--------777-777-77----------------------------------| 
A|----4(x8)----7(x8)----9(x8)----555-555-55----------------------------------| 
D|----4--------7--------9----------------------------------------------------| 
      *        *        *        **  **  * 



Chorus 
Guitar 2: 
e|---------------------------------------------------------------------------| 
B|---------------------------------------------------------------------------| 
G|---------------------------------------------------------------------------| 
D|---------------------------------------------------------------------------| 
A|---------------------------------------------------------------------------| 
D|---------------------------------------------------------------------------| 
	  

Search Paypal
auto scroll beats size up size down change color hide chords drawings
tab show chords e-chords YouTube Clip e-chords hide all tabs e-chords go to top tab