Misc Your Songs

home > Misc Your Songs

7 Arches - Wherever You Will Go Tab

Misc Your Songs

Difficulty: nolevelnolevel

by victborges

tuner correct add songbook print version text version save to e-mail
chordsukulelecavacokeyboardtabbassdrumsharmonicsflute Guitar Pro
chords

7 Arches - Wherever You Will Go

  		
Intro 

  Gtr 1 
e|-----------------|-----------------|-----------------|-----------------| 
B|-----------1-----|-----------1-----|-----------1-----|-----1-----1---1-| 
G|-----0---0---0---|-----0---0---0---|-----0---0---0---|-------0---0---0-| 
D|---2---2-------2-|---0---0-------0-|---2---2-------2-|---2-------------| 
A|-3---------------|-2---------------|-0---------------|-----------------| 
E|-----------------|-----------------|-----------------|-1-------1---3---| 

verse 1 

  Gtr 1 
e|-----------------|-----------------|-----------------|-----------------| 
B|-----------1-----|-----------1-----|-----------1-----|-----1-----1---1-| 
G|-----0---0---0---|-----0---0---0---|-----0---0---0---|-------0---0---0-| 
D|---2---2-------2-|---0---0-------0-|---2---2-------2-|---2-------------| 
A|-3---------------|-2---------------|-0---------------|-----------------| 
E|-----------------|-----------------|-----------------|-1-------1---3---| 
         So lately         been wondering   who will be there to take my 

  Gtr 1 
e|-----------------|-----------------|-----------------|-----------------| 
B|-----------1-----|-----------1-----|-----------1-----|-----1-----1---1-| 
G|-----0---0---0---|-----0---0---0---|-----0---0---0---|-------0---0---0-| 
D|---2---2-------2-|---0---0-------0-|---2---2-------2-|---2-------------| 
A|-3---------------|-2---------------|-0---------------|-----------------| 
E|-----------------|-----------------|-----------------|-1-------1---3---| 
 |place  When I'm gone     you'll need love  to light the shadows on my 
 | 
 |Gtr 2 
e|-3---------------|-----------------|-----------------|-----------------| 
B|-----------------|-3---------------|-1---------------|-----------------| 
G|-----------------|-----------------|-----------------|-----------------| 
D|-----------------|-----------------|-----------------|-----------------| 
A|-----------------|-----------------|-----------------|-----------------| 
E|-----------------|-----------------|-----------------|-----------------| 

  Gtr 1 
e|-----------------|-----------------|-----------------|-----------------| 
B|-----------1-----|-----------1-----|-----------1-----|-----1-----1---1-| 
G|-----0---0---0---|-----0---0---0---|-----0---0---0---|-------0---0---0-| 
D|---2---2-------2-|---0---0-------0-|---2---2-------2-|---2-------------| 
A|-3---------------|-2---------------|-0---------------|-----------------| 
E|-----------------|-----------------|-----------------|-1-------1---3---| 
 |face        If a great wave shall   fall           and fall   upon us 
 | 
 |Gtr 2 
e|-0---------------|-------0---------|-------0---------|-------0---------| 
B|--1--------------|-----------1-----|-----------1-----|-----------1-----| 
G|---0-------------|-----------------|-----0-----------|-----0-----------| 
D|----2------------|-----------------|-----------------|-----------------| 
A|-----3-----------|-----------------|-----------------|-----------------| 
E|-----------------|-----------------|-----------------|-----------------| 

  Gtr 1 
e|-----------------|-----------------|-----------------|-----------------| 
B|-----------1-----|-----------1-----|-----------1-----|-----1-----1---1-| 
G|-----0---0---0---|-----0---0---0---|-----0---0---0---|-------0---0---0-| 
D|---2---2-------2-|---0---0-------0-|---2---2-------2-|---2-------------| 
A|-3---------------|-2---------------|-0---------------|-----------------| 
E|-----------------|-----------------|-----------------|-1-------1---3---| 
 |all        Then between the sand and stone, could you  make it on your own 
 | 
 |Gtr 2 
e|-3---------------|-----------------|-----------------|-----------------| 
B|-----------------|-3---------------|-1---------------|-----------------| 
G|-----------------|-----------------|-----------------|-----------------| 
D|-----------------|-----------------|-----------------|-------3---3-3---| 
A|-----------------|-----------------|-----------------|-------3---3-3---| 
E|-----------------|-----------------|-----------------|-------1---1-1---| 

Chorus 1 

  Gtr 1 
e|-------0---------|-------0---------|-------0---------|-------0---------| 
B|-----------1-----|-----------1-----|-----------1-----|-----------1-----| 
G|-----0---------0-|-----0---------0-|-----0---------0-|-----0---------0-| 
D|---2-------------|---0-------------|---2-------------|---2-------------| 
A|-3---------------|-2---------------|-0---------------|-----------------| 
E|-----------------|-----------------|-----------------|-1---------------| 
 |    If I   could    then I   would    I'll go  wherever      you will go 
 | 
 |Gtr 2 
e|-----------------|-----------------|-----------------|-----------------| 
B|-----------------|-----------------|-----------------|-----------------| 
G|-5---x-5-----5-5-|-----------------|-----------------|-----------------| 
D|-5---x-5-----5-5-|-5---x-5-----5-5-|-7---x-7-----7-7-|-3---x-3-----3-3-| 
A|-3---x-3-----3-3-|-5---x-5-----5-5-|-7---x-7-----7-7-|-3---x-3-----3-3-| 
E|-----------------|-3---x-3-----3-3-|-5---x-5-----5-5-|-1---x-1-----1-1-| 


  Gtr 1 
e|-------0---------|-------0---------|-------0---------|-------0---------| 
B|-----------1-----|-----------1-----|-----------1-----|-----------1-----| 
G|-----0---------0-|-----0---------0-|-----0---------0-|-----0---------0-| 
D|---2-------------|---0-------------|---2-------------|---2-------------| 
A|-3---------------|-2---------------|-0---------------|-----------------| 
E|-----------------|-----------------|-----------------|-1---------------| 
 |   Way up  high      or down low      I'll go  wherever      you will go 
 | 
 |Gtr 2 
e|-----------------|-----------------|-----------------|-----------------| 
B|-----------------|-----------------|-----------------|-----------------| 
G|-5---x-5-----5-5-|-----------------|-----------------|-----------------| 
D|-5---x-5-----5-5-|-5---x-5-----5-5-|-7---x-7-----7-7-|-3---x-3-----3-3-| 
A|-3---x-3-----3-3-|-5---x-5-----5-5-|-7---x-7-----7-7-|-3---x-3-----3-3-| 
E|-----------------|-3---x-3-----3-3-|-5---x-5-----5-5-|-1---x-1-----1-1-| 

verse 2 

  Gtr 1 
e|-----------------|-----------------|-----------------|-----------------| 
B|-----------1-----|-----------1-----|-----------1-----|-----1-----1---1-| 
G|-----0---0---0---|-----0---0---0---|-----0---0---0---|-------0---0---0-| 
D|---2---2-------2-|---0---0-------0-|---2---2-------2-|---2-------------| 
A|-3---------------|-2---------------|-0---------------|-----------------| 
E|-----------------|-----------------|-----------------|-1-------1---3---| 
 |       And maybe         I'll find out     A way to   make it back some- 
 | 
 |Gtr 2 
e|-----------------|-----------------|-----------------|-----------------| 
B|-----------------|-----------------|-----------------|-----------------| 
G|-5---------------|-----------------|-----------------|-----------------| 
D|-5---------------|-----------------|-----------------|-----------------| 
A|-3---------------|-----------------|-----------------|-----------------| 
E|-----------------|-----------------|-----------------|-----------------| 


  Gtr 1 
e|-----------------|-----------------|-----------------|-----------------| 
B|-----------1-----|-----------1-----|-----------1-----|-----1-----1---1-| 
G|-----0---0---0---|-----0---0---0---|-----0---0---0---|-------0---0---0-| 
D|---2---2-------2-|---0---0-------0-|---2---2-------2-|---2-------------| 
A|-3---------------|-2---------------|-0---------------|-----------------| 
E|-----------------|-----------------|-----------------|-1-------1---3---| 
 |day  To watch you        to guide you      through the darkest of  your 
 | 
 |Gtr 2 
e|-3---------------|-----------------|-----------------|-----------------| 
B|-----------------|-3---------------|-1---------------|-----------------| 
G|-----------------|-----------------|-----------------|-----------------| 
D|-----------------|-----------------|-----------------|-----------------| 
A|-----------------|-----------------|-----------------|-----------------| 
E|-----------------|-----------------|-----------------|-----------------| 


  Gtr 1 
e|-0--0-0-0--0---0-0--0--0-|-3--3-3-3--3---3-3--3--3-|-0--0-0-0--0---0-0--0--0-|-1--1-1-1--1---1-1--1--1-| 
B|-1--1-1-1--1---1-1--1--1-|-3--3-3-3--3---3-3--3--3-|-1--1-1-1--1---1-1--1--1-|-1--1-1-1--1---1-1--1--1-| 
G|-0--0-0-0--0---0-0--0--0-|-0--0-0-0--0---0-0--0--0-|-2--2-2-2--2---2-2--2--2-|-2--2-2-2--2---2-2--2--2-| 
D|-2--2-2-2--2---2-2--2--2-|-0--0-0-0--0---0-0--0--0-|-2--2-2-2--2---2-2--2--2-|-3--3-3-3--3---3-3--3--3-| 
A|-3--3-3-3--3---3-3--3--3-|-2--2-2-2--2---2-2--2--2-|-0--0-0-0--0---0-0--0--0-|-3--3-3-3--3---3-3--3--3-| 
E|-------------------------|-3--3-3-3--3---3-3--3--3-|-------------------------|-1--1-1-1--1---1-1--1--1-| 
 |days             If a     great  wave  shall         fall              and     fall     upon    us 
 | 
 |Gtr 2 
e|-0-----------------------|----------0--------------|----------0--------------|----------0--------------| 
B|--1----------------------|----------------1--------|----------------1--------|----------------1--------| 
G|---0---------------------|-------------------------|-------0-----------------|-------0-----------------| 
D|----2--------------------|-------------------------|-------------------------|-------------------------| 
A|-----3-------------------|-------------------------|-------------------------|-------------------------| 
E|-------------------------|-------------------------|-------------------------|-------------------------| 


  Gtr 1 
e|-0--0-0-0--0---0-0--0--0-|-3--3-3-3--3---3-3--3--3-|-0--0-0-0--0---0-0--0--0-|-1--1-1-1--1---1-1--1--1-| 
B|-1--1-1-1--1---1-1--1--1-|-3--3-3-3--3---3-3--3--3-|-1--1-1-1--1---1-1--1--1-|-1--1-1-1--1---1-1--1--1-| 
G|-0--0-0-0--0---0-0--0--0-|-0--0-0-0--0---0-0--0--0-|-2--2-2-2--2---2-2--2--2-|-2--2-2-2--2---2-2--2--2-| 
D|-2--2-2-2--2---2-2--2--2-|-0--0-0-0--0---0-0--0--0-|-2--2-2-2--2---2-2--2--2-|-3--3-3-3--3---3-3--3--3-| 
A|-3--3-3-3--3---3-3--3--3-|-2--2-2-2--2---2-2--2--2-|-0--0-0-0--0---0-0--0--0-|-3--3-3-3--3---3-3--3--3-| 
E|-------------------------|-3--3-3-3--3---3-3--3--3-|-------------------------|-1--1-1-1--1---1-1--1--1-| 
 |all               Then I   hope  there's   someone   out    there  who    can  bring me back to you 
 | 
 |Gtr 2 
e|-3-----------------------|-------------------------|-------------------------|-------------------------| 
B|-------------------------|-3-----------------------|-1-----------------------|-------------------------| 
G|-------------------------|-------------------------|-------------------------|-------------------------| 
D|-------------------------|-------------------------|-------------------------|-3--3--3--3--3--3--3--3--| 
A|-------------------------|-------------------------|-------------------------|-3--3--3--3--3--3--3--3--| 
E|-------------------------|-------------------------|-------------------------|-1--1--1--1--1--1--1--1--| 

Chorus 2 

  Gtr 1 
e|-0--0-0-0--0---0-0--0--0-|-3--3-3-3--3---3-3--3--3-|-0--0-0-0--0---0-0--0--0-|-1--1-1-1--1---1-1--1--1-| 
B|-1--1-1-1--1---1-1--1--1-|-3--3-3-3--3---3-3--3--3-|-1--1-1-1--1---1-1--1--1-|-1--1-1-1--1---1-1--1--1-| 
G|-0--0-0-0--0---0-0--0--0-|-0--0-0-0--0---0-0--0--0-|-2--2-2-2--2---2-2--2--2-|-2--2-2-2--2---2-2--2--2-| 
D|-2--2-2-2--2---2-2--2--2-|-0--0-0-0--0---0-0--0--0-|-2--2-2-2--2---2-2--2--2-|-3--3-3-3--3---3-3--3--3-| 
A|-3--3-3-3--3---3-3--3--3-|-2--2-2-2--2---2-2--2--2-|-0--0-0-0--0---0-0--0--0-|-3--3-3-3--3---3-3--3--3-| 
E|-------------------------|-3--3-3-3--3---3-3--3--3-|-------------------------|-1--1-1-1--1---1-1--1--1-| 
 |            If I   could            then I   would                I'll go  wherever        you will go 
 | 
 |Gtr 2 
e|-------------------------|-------------------------|-------------------------|-------------------------| 
B|-------------------------|-------------------------|-------------------------|-------------------------| 
G|-5-----x--5--------5--5--|-------------------------|-------------------------|-------------------------| 
D|-5-----x--5--------5--5--|-5-----x--5--------5--5--|-7-----x--7--------7--7--|-3-----x--3--------3--3--| 
A|-3-----x--3--------3--3--|-5-----x--5--------5--5--|-7-----x--7--------7--7--|-3-----x--3--------3--3--| 
E|-------------------------|-3-----x--3--------3--3--|-5-----x--5--------5--5--|-1-----x--1--------1--1--| 


  Gtr 1 
e|-0--0-0-0--0---0-0--0--0-|-3--3-3-3--3---3-3--3--3-|-0--0-0-0--0---0-0--0--0-|-1--1-1-1--1---1-1--1--1-| 
B|-1--1-1-1--1---1-1--1--1-|-3--3-3-3--3---3-3--3--3-|-1--1-1-1--1---1-1--1--1-|-1--1-1-1--1---1-1--1--1-| 
G|-0--0-0-0--0---0-0--0--0-|-0--0-0-0--0---0-0--0--0-|-2--2-2-2--2---2-2--2--2-|-2--2-2-2--2---2-2--2--2-| 
D|-2--2-2-2--2---2-2--2--2-|-0--0-0-0--0---0-0--0--0-|-2--2-2-2--2---2-2--2--2-|-3--3-3-3--3---3-3--3--3-| 
A|-3--3-3-3--3---3-3--3--3-|-2--2-2-2--2---2-2--2--2-|-0--0-0-0--0---0-0--0--0-|-3--3-3-3--3---3-3--3--3-| 
E|-------------------------|-3--3-3-3--3---3-3--3--3-|-------------------------|-1--1-1-1--1---1-1--1--1-| 
 |             Way up  high           or down low                   I'll go     wherever         you will 
 | 
 |Gtr 2 
e|-------------------------|-------------------------|-------------------------|-------------------------| 
B|-------------------------|-------------------------|-------------------------|-------------------------| 
G|-5-----x--5--------5--5--|-------------------------|-------------------------|-------------------------| 
D|-5-----x--5--------5--5--|-5-----x--5--------5--5--|-7-----x--7--------7--7--|-3-----x--3--------3--3--| 
A|-3-----x--3--------3--3--|-5-----x--5--------5--5--|-7-----x--7--------7--7--|-3-----x--3--------3--3--| 
E|-------------------------|-3-----x--3--------3--3--|-5-----x--5--------5--5--|-1-----x--1--------1--1--| 

Middle 8 

  Gtr 1 
e|-8-----7---------|-----------------|-7-----5---------|-----------------| 
B|-------------5---|-6---------------|-------------8---|-5---------------| 
G|-----------------|-----------------|-----------------|-----------------| 
D|-----------------|-----------------|-----------------|-----------------| 
A|-----------------|-----------------|-----------------|-----------------| 
E|-----------------|-----------------|-----------------|-----------------| 
 | go                Run away with my  heart             Run away with my 
 | 
 |Gtr 2 
e|-0---0-0-----0-0-|-1---1-1-----1-1-|-3---3-3-----3-3-|-0---0-0-----0-0-| 
B|-1---1-1-----1-1-|-1---1-1-----1-1-|-0---0-0-----0-0-|-0---0-0-----0-0-| 
G|-2---2-2-----2-2-|-2---2-2-----2-2-|-0---0-0-----0-0-|-0---0-0-----0-0-| 
D|-2---2-2-----2-2-|-3---3-3-----3-3-|-0---0-0-----0-0-|-2---2-2-----2-2-| 
A|-0---0-0-----0-0-|-3---3-3-----3-3-|-2---2-2-----2-2-|-2---2-2-----2-2-| 
E|-----------------|-1---1-1-----1-1-|-3---3-3-----3-3-|-0---0-0-----0-0-| 


  Gtr 1 
e|-8-----7---------|-----------------|-7-----5---------|-----------------| 
B|-------------5---|-6---------------|-------------8---|-5---------------| 
G|-----------------|-----------------|-----------------|-----------------| 
D|-----------------|-----------------|-----------------|-----------------| 
A|-----------------|-----------------|-----------------|-----------------| 
E|-----------------|-----------------|-----------------|-----------------| 
 | hope              Run away with my  love 
 | 
 |Gtr 2 
e|-0---0-0-----0-0-|-1---1-1-----1-1-|-3---3-3-----3-3-|-x-0-0-0-0-0-0-0-| 
B|-1---1-1-----1-1-|-1---1-1-----1-1-|-0---0-0-----0-0-|-x-0-0-0-0-0-0-0-| 
G|-2---2-2-----2-2-|-2---2-2-----2-2-|-0---0-0-----0-0-|-x-0-0-0-0-0-0-0-| 
D|-2---2-2-----2-2-|-3---3-3-----3-3-|-0---0-0-----0-0-|-x-2-2-2-2-2-2-2-| 
A|-0---0-0-----0-0-|-3---3-3-----3-3-|-2---2-2-----2-2-|-x-2-2-2-2-2-2-2-| 
E|-----------------|-1---1-1-----1-1-|-3---3-3-----3-3-|-x-0-0-0-0-0-0-0-| 

verse 3 

  Gtr 1 
e|-----------------|-----------------|-----------------|-----------------| 
B|-----------1-----|-----------1-----|-----------1-----|-----1-----1---1-| 
G|-----0---0---0---|-----0---0---0---|-----0---0---0---|-------0---0---0-| 
D|---2---2-------2-|---0---0-------0-|---2---2-------2-|---2-------------| 
A|-3---------------|-2---------------|-0---------------|-----------------| 
E|-----------------|-----------------|-----------------|-1-------1---3---| 
 |       I know now        just quite how   my life and love might still go 
 | 
 |Gtr 2 
e|-0---------------|-----------------|-----------------|-----------------| 
B|-1---------------|-----------------|-----------------|-----------------| 
G|-0---------------|-----------------|-----------------|-----------------| 
D|-2---------------|-----------------|-----------------|-----------------| 
A|-3---------------|-----------------|-----------------|-----------------| 
E|-----------------|-----------------|-----------------|-----------------| 


  Gtr 1 
e|-----------------|-----------------|-----------------|-1---1-1-1-1-1-1-| 
B|-----------1-----|-----------1-----|-----------1-----|-1---1-1-1-1-1-1-| 
G|-----0---0---0---|-----0---0---0---|-----0---0---0---|-2---2-2-2-2-2-2-| 
D|---2---2-------2-|---0---0-------0-|---2---2-------2-|-3---3-3-3-3-3-3-| 
A|-3---------------|-2---------------|-0---------------|-3---3-3-3-3-3-3-| 
E|-----------------|-----------------|-----------------|-1---1-1-1-1-1-1-| 
 |on     In your heart    in your mind    I'll stay with you for all of time 
 | 
 |Gtr 2 
e|-3---------------|-----------------|-----------------|-----------------| 
B|-----------------|-3---------------|-1---------------|-----------------| 
G|-----------------|-----------------|-----------------|-----------------| 
D|-----------------|-----------------|-----------------|-3---------------| 
A|-----------------|-----------------|-----------------|-3---------------| 
E|-----------------|-----------------|-----------------|-1---------------| 
                                                         

Chorus 3 

  Gtr 1 
e|-0--0-0-0--0---0-0--0--0-|-3--3-3-3--3---3-3--3--3-|-0--0-0-0--0---0-0--0--0-|-1--1-1-1--1---1-1--1--1-| 
B|-1--1-1-1--1---1-1--1--1-|-3--3-3-3--3---3-3--3--3-|-1--1-1-1--1---1-1--1--1-|-1--1-1-1--1---1-1--1--1-| 
G|-0--0-0-0--0---0-0--0--0-|-0--0-0-0--0---0-0--0--0-|-2--2-2-2--2---2-2--2--2-|-2--2-2-2--2---2-2--2--2-| 
D|-2--2-2-2--2---2-2--2--2-|-0--0-0-0--0---0-0--0--0-|-2--2-2-2--2---2-2--2--2-|-3--3-3-3--3---3-3--3--3-| 
A|-3--3-3-3--3---3-3--3--3-|-2--2-2-2--2---2-2--2--2-|-0--0-0-0--0---0-0--0--0-|-3--3-3-3--3---3-3--3--3-| 
E|-------------------------|-3--3-3-3--3---3-3--3--3-|-------------------------|-1--1-1-1--1---1-1--1--1-| 
 |            If I   could            then I   would                I'll go  wherever        you will go 
 | 
 |Gtr 2 
e|-------------------------|-------------------------|-------------------------|-------------------------| 
B|-------------------------|-------------------------|-------------------------|-------------------------| 
G|-5-----x--5--------5--5--|-------------------------|-------------------------|-------------------------| 
D|-5-----x--5--------5--5--|-5-----x--5--------5--5--|-7-----x--7--------7--7--|-3-----x--3--------3--3--| 
A|-3-----x--3--------3--3--|-5-----x--5--------5--5--|-7-----x--7--------7--7--|-3-----x--3--------3--3--| 
E|-------------------------|-3-----x--3--------3--3--|-5-----x--5--------5--5--|-1-----x--1--------1--1--| 


  Gtr 1 
e|-0--0-0-0--0---0-0--0--0-|-3--3-3-3--3---3-3--3--3-|-0--0-0-0--0---0-0--0--0-|-1--1-1-1--1---1-1--1--1-| 
B|-1--1-1-1--1---1-1--1--1-|-3--3-3-3--3---3-3--3--3-|-1--1-1-1--1---1-1--1--1-|-1--1-1-1--1---1-1--1--1-| 
G|-0--0-0-0--0---0-0--0--0-|-0--0-0-0--0---0-0--0--0-|-2--2-2-2--2---2-2--2--2-|-2--2-2-2--2---2-2--2--2-| 
D|-2--2-2-2--2---2-2--2--2-|-0--0-0-0--0---0-0--0--0-|-2--2-2-2--2---2-2--2--2-|-3--3-3-3--3---3-3--3--3-| 
A|-3--3-3-3--3---3-3--3--3-|-2--2-2-2--2---2-2--2--2-|-0--0-0-0--0---0-0--0--0-|-3--3-3-3--3---3-3--3--3-| 
E|-------------------------|-3--3-3-3--3---3-3--3--3-|-------------------------|-1--1-1-1--1---1-1--1--1-| 
 |             Way up  high           or down low                   I'll go  wherever      you will go 
 | 
 |Gtr 2 
e|-------------------------|-------------------------|-------------------------|-------------------------| 
B|-------------------------|-------------------------|-------------------------|-------------------------| 
G|-5-----x--5--------5--5--|-------------------------|-------------------------|-------------------------| 
D|-5-----x--5--------5--5--|-5-----x--5--------5--5--|-7-----x--7--------7--7--|-3-----x--3--------3--3--| 
A|-3-----x--3--------3--3--|-5-----x--5--------5--5--|-7-----x--7--------7--7--|-3-----x--3--------3--3--| 
E|-------------------------|-3-----x--3--------3--3--|-5-----x--5--------5--5--|-1-----x--1--------1--1--| 


  Gtr 1 
e|-0--0-0-0--0---0-0--0--0-|-3--3-3-3--3---3-3--3--3-|-0--0-0-0--0---0-0--0--0-|-1--1-1-1--1---1-1--1--1-| 
B|-1--1-1-1--1---1-1--1--1-|-3--3-3-3--3---3-3--3--3-|-1--1-1-1--1---1-1--1--1-|-1--1-1-1--1---1-1--1--1-| 
G|-0--0-0-0--0---0-0--0--0-|-0--0-0-0--0---0-0--0--0-|-2--2-2-2--2---2-2--2--2-|-2--2-2-2--2---2-2--2--2-| 
D|-2--2-2-2--2---2-2--2--2-|-0--0-0-0--0---0-0--0--0-|-2--2-2-2--2---2-2--2--2-|-3--3-3-3--3---3-3--3--3-| 
A|-3--3-3-3--3---3-3--3--3-|-2--2-2-2--2---2-2--2--2-|-0--0-0-0--0---0-0--0--0-|-3--3-3-3--3---3-3--3--3-| 
E|-------------------------|-3--3-3-3--3---3-3--3--3-|-------------------------|-1--1-1-1--1---1-1--1--1-| 
 |               If I could  turn        back          time         I'll go  wherever  you will   go 
 | 
 |Gtr 2 
e|-------------------------|-------------------------|-------------------------|-------------------------| 
B|-------------------------|-------------------------|-------------------------|-------------------------| 
G|-5-----x--5--------5--5--|-------------------------|-------------------------|-------------------------| 
D|-5-----x--5--------5--5--|-5-----x--5--------5--5--|-7-----x--7--------7--7--|-3-----x--3--------3--3--| 
A|-3-----x--3--------3--3--|-5-----x--5--------5--5--|-7-----x--7--------7--7--|-3-----x--3--------3--3--| 
E|-------------------------|-3-----x--3--------3--3--|-5-----x--5--------5--5--|-1-----x--1--------1--1--| 


  Gtr 1 
e|-0--0-0-0--0---0-0--0--0-|-3--3-3-3--3---3-3--3--3-|-0--0-0-0--0---0-0--0--0-|-1--1-1-1--1---1-1--1--1-| 
B|-1--1-1-1--1---1-1--1--1-|-3--3-3-3--3---3-3--3--3-|-1--1-1-1--1---1-1--1--1-|-1--1-1-1--1---1-1--1--1-| 
G|-0--0-0-0--0---0-0--0--0-|-0--0-0-0--0---0-0--0--0-|-2--2-2-2--2---2-2--2--2-|-2--2-2-2--2---2-2--2--2-| 
D|-2--2-2-2--2---2-2--2--2-|-0--0-0-0--0---0-0--0--0-|-2--2-2-2--2---2-2--2--2-|-3--3-3-3--3---3-3--3--3-| 
A|-3--3-3-3--3---3-3--3--3-|-2--2-2-2--2---2-2--2--2-|-0--0-0-0--0---0-0--0--0-|-3--3-3-3--3---3-3--3--3-| 
E|-------------------------|-3--3-3-3--3---3-3--3--3-|-------------------------|-1--1-1-1--1---1-1--1--1-| 
 |              If I could   make        you           mine          I'll go     wherever  you   will 
 | 
 |Gtr 2 
e|-------------------------|-------------------------|-------------------------|-------------------------| 
B|-------------------------|-------------------------|-------------------------|-------------------------| 
G|-5-----x--5--------5--5--|-------------------------|-------------------------|-------------------------| 
D|-5-----x--5--------5--5--|-5-----x--5--------5--5--|-7-----x--7--------7--7--|-3-----x--3--------3--3--| 
A|-3-----x--3--------3--3--|-5-----x--5--------5--5--|-7-----x--7--------7--7--|-3-----x--3--------3--3--| 
E|-------------------------|-3-----x--3--------3--3--|-5-----x--5--------5--5--|-1-----x--1--------1--1--| 



Outro 

  Gtr 1 
e|-0--0-0-0--0---0-0--0--0-|-3--3-3-3--3---3-3--3--3-|-0--0-0-0--0---0-0--0--0-|-1--1-1-1--1---1-1--1--1-| 
B|-1--1-1-1--1---1-1--1--1-|-3--3-3-3--3---3-3--3--3-|-1--1-1-1--1---1-1--1--1-|-1--1-1-1--1---1-1--1--1-| 
G|-0--0-0-0--0---0-0--0--0-|-0--0-0-0--0---0-0--0--0-|-2--2-2-2--2---2-2--2--2-|-2--2-2-2--2---2-2--2--2-| 
D|-2--2-2-2--2---2-2--2--2-|-0--0-0-0--0---0-0--0--0-|-2--2-2-2--2---2-2--2--2-|-3--3-3-3--3---3-3--3--3-| 
A|-3--3-3-3--3---3-3--3--3-|-2--2-2-2--2---2-2--2--2-|-0--0-0-0--0---0-0--0--0-|-3--3-3-3--3---3-3--3--3-| 
E|-------------------------|-3--3-3-3--3---3-3--3--3-|-------------------------|-1--1-1-1--1---1-1--1--1-| 
 |go                                                                I'll go  wherever  you will go 
 | 
 |Gtr 2 
e|-------------------------|-------------------------|-------------------------|-------------------------| 
B|-------------------------|-------------------------|-------------------------|-------------------------| 
G|-5---5-5--5----5-5--5----|-5---5-5--5----5-5--5--5-|-5---5-5--5----5-5--5----|-5---5-5--5----5-5--5--5-| 
D|-x---x-x--x----x-x--x----|-x---x-x--x----x-x--x--x-|-x---x-x--x----x-x--x----|-x---x-x--x----x-x--x--x-| 
A|-3---3-3--3----3-3--3----|-3---3-3--3----3-3--3--3-|-3---3-3--3----3-3--3----|-3---3-3--3----3-3--3--3-| 
E|-------------------------|-------------------------|-------------------------|-------------------------| 


  Gtr 1 
e|-0--0-0-0--0---0-0--0--0-|-3--3-3-3--3---3-3--3--3-|-0--0-0-0--0---0-0--0--0-|-1--1-1-1--1---1-1--1--1-| 
B|-1--1-1-1--1---1-1--1--1-|-3--3-3-3--3---3-3--3--3-|-1--1-1-1--1---1-1--1--1-|-1--1-1-1--1---1-1--1--1-| 
G|-0--0-0-0--0---0-0--0--0-|-0--0-0-0--0---0-0--0--0-|-2--2-2-2--2---2-2--2--2-|-2--2-2-2--2---2-2--2--2-| 
D|-2--2-2-2--2---2-2--2--2-|-0--0-0-0--0---0-0--0--0-|-2--2-2-2--2---2-2--2--2-|-3--3-3-3--3---3-3--3--3-| 
A|-3--3-3-3--3---3-3--3--3-|-2--2-2-2--2---2-2--2--2-|-0--0-0-0--0---0-0--0--0-|-3--3-3-3--3---3-3--3--3-| 
E|-------------------------|-3--3-3-3--3---3-3--3--3-|-------------------------|-1--1-1-1--1---1-1--1--1-| 
 |                                                                     I'll go   wherever      you  will 
 | 
 |Gtr 2 
e|-------------------------|-------------------------|-------------------------|-------------------------| 
B|-------------------------|-------------------------|-------------------------|-------------------------| 
G|-5---5-5--5----5-5--5----|-5---5-5--5----5-5--5--5-|-5---5-5--5----5-5--5----|-5---5-5--5----5-5--5--5-| 
D|-x---x-x--x----x-x--x----|-x---x-x--x----x-x--x--x-|-x---x-x--x----x-x--x----|-x---x-x--x----x-x--x--x-| 
A|-3---3-3--3----3-3--3----|-3---3-3--3----3-3--3--3-|-3---3-3--3----3-3--3----|-3---3-3--3----3-3--3--3-| 
E|-------------------------|-------------------------|-------------------------|-------------------------| 

  Gtr 1 
e|-0---------------| 
B|-1---------------| 
G|-0---------------| 
D|-2---------------| 
A|-3---------------| 
E|-----------------| 
 | go 
 | 
 |Gtr 2 
e|-----------------| 
B|-----------------| 
G|-5---------------| 
D|-5---------------| 
A|-3---------------| 
E|-----------------| 



************************************ 

| x   Dead Note 
| .   Staccato 

************************************ 
	  

Search Paypal
auto scroll beats size up size down change color hide chords drawings
tab show chords e-chords YouTube Clip e-chords hide all tabs e-chords go to top tab