Misc Your Songs

home > Misc Your Songs

10tonix - Marks Lullaby Tab

Misc Your Songs

Difficulty: nolevelnolevel

by hugo%5Frodrigues

tuner correct add songbook print version text version save to e-mail
chordsukulelecavacokeyboardtabbassdrumsharmonicsflute Guitar Pro
chords

10tonix - Marks Lullaby

  		
Main Riff 
e|---------------------------------------| 
B|---------------------------------------| 
G|--0------------------------------------| 
D|-------0----------------------------0--| x4 
A|-----------3----------------0---2------| 
E|--0--------------2-------3-------------| 

e|------------------------------------| 
B|------------------------------------| 
G|------------------------------------| 
D|------------------------------------| 
A|--3----------2---3----------2---3---| 
E|------2---3----------2---3----------| 

e|---------------------------------------| 
B|---------------------------------------| 
G|--0-------------0---0-------------0----| 
D|------0----0------------0----0---------| 
A|--3-------------2---3-------------2----| 
E|------2----3------------2----3---------| 

e|------------------------------------------------------------------------| 
B|------------------------------------------------------------------------| 
G|--0--------------------0----------0--------------------------0----------| 
D|-----0---0-----0-----------0----------0---0--------0-------------0------| 
A|--3---------0-----0----2----------3-----------0---------0----2----------| 
E|---------2-----3--------------------------2--------3--------------------| 

e|---------------------------------------------------------------------------| 
B|---------------------------------------------------------------------------| 
G|--0-----0-------------------------------------------0-------0--------------| 
D|-----0-----0----0-------0--------0--------0-------------0------0-----------| x2 
A|--3-----------------0-------0---------0-------0-----2----------------------| 
E|----------------2----------------3-----------------------------------------| 

e|------------------------------------------------------------------------| 
B|------------------------------------------------------------------------| 
G|--0--------------------0----------0--------------------------0----------| 
D|-----0---0-----0-----------0----------0---0--------0-------------0------| 
A|--3---------0-----0----2----------3-----------0---------0----2----------| 
E|---------2-----3--------------------------2--------3--------------------| 

e|---------------------------------------| 
B|---------------------------------------| 
G|--0-------------0---0-------------0----| 
D|------0----0------------0----0---------| 
A|--3-------------2---3-------------2----| 
E|------2----3------------2----3---------| 

e|------------------------------------| 
B|------------------------------------| 
G|------------------------------------| 
D|------------------------------------| 
A|--3----------2---3----------2---3---| 
E|------2---3----------2---3----------| 

e|---------------------------------------| 
B|---------------------------------------| 
G|--0------------------------------------| 
D|-------0----------------------------0r-| x2  
A|-----------3----------------0---2------| 
E|--0--------------2-------3-------------| 



************************************ 

| r  Let Ring 

************************************ 
	  

Search Paypal
auto scroll beats size up size down change color hide chords drawings
tab show chords e-chords YouTube Clip e-chords hide all tabs e-chords go to top tab