Misc Traditional

home > Misc Traditional

Atirei O Pau No Gato Tab

Misc Traditional

Difficulty: nolevelnolevel

by aman%5Fclaudino

tuner correct add songbook print version text version save to e-mail
chordsukulelecavacokeyboardtabbassdrumsharmonicsflute Guitar Pro
chords

Atirei O Pau No Gato

	  Tuning:Standard 

e|-5---3---2--0-2--3---5--5-5-7----5---3---3---3----------5------| 
B|---------------------------------------------------------------| 
G|---------------------------------------------------------------| 
D|---------------------------------------------------------------| 
A|---------------------------------------------------------------| 
E|---------------------------------------------------------------| 


e|3----2-----2---2-------0---7----7----7----9-----7--------------| 
B|-----------------3---------------------------------------------| 
G|---------------------------------------------------------------| 
D|---------------------------------------------------------------| 
A|---------------------------------------------------------------| 
E|---------------------------------------------------------------| 



e|-5-----5----5--------------------------------------------------| 
B|-----------------7-------8--10----7--8---10----8---7----5---3--| 
G|---------------------------------------------------------------| 
D|---------------------------------------------------------------| 
A|---------------------------------------------------------------| 
E|---------------------------------------------------------------| 


e|---------------10----------------------------------------------| 
B|--10-----------7-----------------------------------------------| 
G|--7------------7-----------------------------------------------| 
D|--7------------------------------------------------------------| 
A|---------------------------------------------------------------| 
E|---------------------------------------------------------------| 
	  

there isn't a video lesson for this song

request
Search Paypal
auto scroll beats size up size down change color hide chords drawings
tab show chords e-chords YouTube Clip e-chords hide all tabs e-chords go to top tab