Misc Television

Waltz For John And Mary

Misc Television

tabs

by  ADALGOMES

save to print version add songbook text version e-mail correct tuner
chordsukulelecavacokeyboardtabbassdrumsharmonicaflute Guitar Pro
close

there isn't a video lesson for this song

chords

Waltz For John And Mary

	  		

From BBC's Sherlock. Series 3, episode 2; The Sign of Three. 

The waltz composed by Sherlock Holmes for John and Mary's wedding dance. 
The piece was (clearly) for his violin, so it should be played in a even 
and flowing manner. This is a fairly simple melody, but please feel free 
to embellish and expand upon this tab. 

*There is a glissando at the beginning of bar 17 in the proper piece.  
A slide or simple hammer-on should work fairly well. 

e |--------------------3---|1---3---0---------------|0---------------0---8---| 
B |1---------------1-------|--------------------3---|------------1-----------| 
G |------------0-----------|------------------------|------------------------| 
D |------------------------|------------------------|------------------------| 
A |------------------------|------------------------|------------------------| 
E |------------------------|------------------------|------------------------| 


e |7---8---5-----------0---|3-----------0---5---3---|1---------------3---1---| 
B |------------------------|------------------------|------------3-----------| 
G |------------------------|------------------------|------------------------| 
D |------------------------|------------------------|------------------------| 
A |------------------------|------------------------|------------------------| 
E |------------------------|------------------------|------------------------| 


e |0---------------1---0---|------------------------|--------------------3---| 
B |------------1-----------|3-----------------------|----------------1-------| 
G |------------------------|--------1-------0-------|0-----------------------| 
D |------------------------|----3-------------------|------------------------| 
A |------------------------|------------------------|------------------------| 
E |------------------------|------------------------|------------------------| 


e |1---3---0---------------|0---------------0---8---|7---8---5-----------2---| 
B |--------------------3---|------------1-----------|------------------------| 
G |------------------------|------------------------|------------------------| 
D |------------------------|------------------------|------------------------| 
A |------------------------|------------------------|------------------------| 
E |------------------------|------------------------|------------------------| 


e |3-----------2---3---5---|7-----------5---7---8---|10------3-------3-------| 
B |------------------------|------------------------|------------------------| 
G |------------------------|------------------------|------------------------| 
D |------------------------|------------------------|------------------------| 
A |------------------------|------------------------|------------------------| 
E |------------------------|------------------------|------------------------| 


e |3---(hold)--------------|12*-----12------12------|12------10----------5---| 
B |------------------------|------------------------|------------------------| 
G |------------------------|------------------------|------------------------| 
D |------------------------|------------------------|------------------------| 
A |------------------------|------------------------|------------------------| 
E |------------------------|------------------------|------------------------| 


e |8---5---0-------8-------|8-------7-----------0---|5-----------1---------7-| 
B |------------------------|------------------------|----------------3-------| 
G |------------------------|------------------------|------------------------| 
D |------------------------|------------------------|------------------------| 
A |------------------------|------------------------|------------------------| 
E |------------------------|------------------------|------------------------| 


e |5-------3-------0-------|--------------------0---|0-----------------------| 
B |--------------------1---|----------------1-------|--------3---------------| 
G |------------------------|1-----------0-----------|------------------------| 
D |------------------------|------------------------|------------------------| 
A |------------------------|------------------------|------------------------| 
E |------------------------|------------------------|------------------------| 


e |0-------0-------0-----1-|0-----------------------|0-------0-------0-----1-| 
B |------------------------|--------3---------------|------------------------| 
G |------------------------|--------------------0---|------------------------| 
D |------------------------|------------------------|------------------------| 
A |------------------------|------------------------|------------------------| 
E |------------------------|------------------------|------------------------| 


e |0-----------------------|0-----------------------|0-----------------------| 
B |--------3---------------|--------1---------------|--------1---------------| 
G |--------------------0---|--------------------2---|--------------------2---| 
D |------------------------|------------------------|------------------------| 
A |------------------------|------------------------|------------------------| 
E |------------------------|------------------------|------------------------| 


e |------------------------|------------------------|------------------------| 
B |1---(rit.)--------------|------------------------|------------------------| 
G |------------------------|------------------------|------------------------| 
D |------------------------|------------------------|------------------------| 
A |------------------------|------------------------|------------------------| 
E |------------------------|------------------------|------------------------| 



************************************ 

| /   slide up 
| \   slide down 
| h   hammer-on 
| p   pull-off 
| ~   vibrato 
| +   harmonic 
| x   Mute note 
| b   Bend 
| pb  Pre-bend 
| br  Bend release 
| pbr Pre-bend release 
| brb Bend release bend 

************************************ 
		  

See also:

tabs Misc Computer Games - Assassins Creed Black Flag - Randy Dandy O tabs Dirty Heads - Sloths Revenge tabs Misc Television - Gravity Falls Theme tabs Misc Computer Games - Resident Evil 4 - Save Theme tabs Misc Computer Games - Sea Of Thieves - Becalmed Hurdy-gurdy tabs Misc Computer Games - Rogue Legacy - Lamprey
e-chords

Other versions:

tabs Misc Television - Waltz For John And Mary
auto scroll beats size up size down change color hide chords drawings
tab show chords e-chords YouTube Clip e-chords hide all tabs e-chords go to top tab

share