Misc Television

Doctor Who Theme (acoustic)

Misc Television

tabs Beginner beginner

by  SABRJOAO

save to print version add songbook text version e-mail correct tuner
chordsukulelecavacokeyboardtabbassdrumsharmonicaflute Guitar Pro
close

there isn't a video lesson for this song

chords

Doctor Who Theme (acoustic)

	  		

e|----------------------|----------------------|----------------------| 
B|----------------------|----------------------|----------------------| 
G|----------------------|----------------------|----------------------| 
D|--2-----2--2-----0----|--2-----2--2-----0----|--2-----2--2-----4----| 
A|-----2--------2-------|-----2--------2-------|-----2--------2-------| 
D|--2--------2----------|--2--------2----------|--2--------2----------| 


e|----------------------|----------------------|----------------------| 
B|----------------------|----------------------|----------------------| 
G|--0-----0--0----------|----------------------|----------------------| 
D|-----0-----------0----|--2-----2--2-----0----|--2-----2--2-----0----| 
A|----------------------|-----2--------2-------|-----2--------2-------| 
D|--5--------5--0-------|--2--------2----------|--2--------2----------| 


e|----------------------|-----------8----------|--7-------------------| 
B|----------------------|-----------------0----|--------0--0----------| 
G|----------------------|--0-----0-----0-------|-----0--------0-------| 
D|--2-----2--2-----4----|-----0----------------|-----------------0----| 
A|-----2--------2-------|----------------------|--7-------------------| 
D|--2--------2----------|--5-------------------|----------------------| 


e|----------------------|----------------------|--10------------------| 
B|--------0--0----------|--------0--0----------|-----0-----10---------| 
G|-----0--------0-------|----------------------|--------7-----7-------| 
D|----------------------|-----7--------7-------|-----------------0----| 
A|--7--------------0----|----------------------|----------------------| 
D|----------------------|--9--------------9----|----------------------| 


e|--7-------------------|----------------------|----------------------| 
B|--------0--0----------|--------0--0----------|--------0--0----------| 
G|-----0--------0-------|-----0--------0-------|----------------------| 
D|-----------------0----|----------------------|-----7--------7-------| 
A|--7-------------------|--7--------------0----|-----------------9----| 
D|----------------------|----------------------|--9-------------------| 


e|----------------------|--7-------------------|----------------------| 
B|--------0--0----------|--------0--8\---------|--0--------------0----| 
G|----------------------|-----0--------0-------|--------0-----0-------| 
D|-----7--------7-------|-----------------0----|-----2----------------| 
A|-----------------9----|--7-------------------|----------------------| 
D|--9-------------------|----------------------|-----------2----------| 


e|----------------------|----------------------|----------------------| 
B|--3-------------------|--0-------------------|--0-------------------| 
G|--------0--0-----5----|-----------2----------|--------0--2----------| 
D|-----0----------------|--------4-----4-------|-----2--------2-------| 
A|----------------------|-----2-----------2----|----------------------| 
D|--5-----------5-------|----------------------|--2--------------2----| 


e|----------------------|----------------------|----------------------| 
B|--0--------0h-1--3----|--0-----0--0-----1----|--0-----0--0----------| 
G|--------0--------0----|--------------2-------|--------------2-------| 
D|-----2-----2----------|-----4----------------|-----4-----------4----| 
A|----------------------|----------------------|----------------------| 
D|----------------------|----------------------|----------------------| 


e|----------------------|--5--------8----------|--7-------------------| 
B|--------0--0-----0----|--------0--------0----|--------0--0----------| 
G|--------------2-------|-----0--------0-------|-----0--------0-------| 
D|-----4----------------|----------------------|----------------------| 
A|--2-------------------|----------------------|----------------------| 
D|----------------------|----------------------|-----------------4----| 


e|----------------------|----------------------|-----------7----------| 
B|--------0--0----------|--------0--0----------|--8-----------0-------| 
G|-----0--------0-------|-----0--------0-------|-----0-----------0----| 
D|----------------------|----------------------|--------0-------------| 
A|----------------------|----------------------|----------------------| 
D|--5--------------4----|--5--------------5----|----------------------| 


e|--5-----------3--2----|--3-------------------|----------------------| 
B|-----------3----------|--------0--0----------|--------0--0----------| 
G|--------2-------------|-----0--------0-------|-----0--------0-------| 
D|--0--0----------------|----------------------|----------------------| 
A|----------------------|----------------------|----------------------| 
D|----------------------|-----------------4----|--5--------------5----| 


e|----------------------|--0-------------------|----------------------| 
B|-----------3----------|--------------3h-1----|--3--------------3\---| 
G|--0-----------0-------|--------0-------------|-----------0----------| 
D|-----0-----------0----|-----------0----------|--------0-----0-------| 
A|----------------------|--3-------------------|----------------------| 
D|--------5-------------|----------------------|-----5----------------| 


e|--0-------------------|-----------3-----7----|--5-------------------| 
B|--------------3h-1----|--3-----------0-------|--------0--0----------| 
G|--------0-------------|----------------------|----------------------| 
D|-----2----------------|--------0-------------|-----4--------4-------| 
A|--3--------3----------|----------------------|-----------------0----| 
D|----------------------|--5--5----------------|----------------------| 


e|--------------3h-2----|--3-------------------|----------------------| 
B|--------0--0----------|--------0--0----------|--------0--0----------| 
G|----------------------|-----0--------0-------|-----0--------0-------| 
D|-----4----------------|-----------------0----|--2-------------------| 
A|--2-------------------|----------------------|-----------------0----| 
D|----------------------|----------------------|--2-------------------| 


e|----------------------|----------------------|----------------------| 
B|--------0--0----------|--------0--0----------|--------0--0-----0----| 
G|--------------2-------|--------------2-------|--------------2-------| 
D|-----4----------------|-----4-----------4----|-----4----------------| 
A|--2--------------0----|--2-------------------|--2-------------------| 
D|----------------------|----------------------|----------------------| 


e|-----------8----------|--7-------------------|----------------------| 
B|--0-----0--------0----|--------0--0----------|--------0--0----------| 
G|-----2--------0-------|-----0--------0-------|-----0--------0-------| 
D|----------------------|-----------------0----|----------------------| 
A|----------------------|--7-------------------|--7--------------0----| 
D|----------------------|----------------------|----------------------| 


e|----------------------|--10------------------|--7-------------------| 
B|--------0--0----------|-----0-----10---------|--------0--0----------| 
G|----------------------|--------7-----7-------|-----0--------0-------| 
D|-----7--------7-------|-----------------0----|-----------------0----| 
A|----------------------|----------------------|--7-------------------| 
D|--9--------------9----|----------------------|----------------------| 


e|----------------------|----------------------|----------------------| 
B|--------0--0----------|--------0--0----------|--------0--0----------| 
G|-----0--------0-------|----------------------|----------------------| 
D|----------------------|-----7--------7-------|-----7--------7-------| 
A|--7--------------0----|-----------------9----|-----------------9----| 
D|----------------------|--9-------------------|--9-------------------| 


e|--7-------------------|----------------------|----------------------| 
B|--------0--8\---------|--0--------------0----|--3-------------------| 
G|-----0--------0-------|--------0-----0-------|--------0--0-----5----| 
D|-----------------0----|-----2----------------|-----0----------------| 
A|--7-------------------|----------------------|----------------------| 
D|----------------------|-----------2----------|--5-----------5-------| 


e|----------------------|----------------------|----------------------| 
B|--0-------------------|--0-------------------|--0--------0h-1--3----| 
G|-----------2----------|--------0--2----------|--------0--------0----| 
D|--------4-----4-------|-----2--------2-------|-----2-----2----------| 
A|-----2-----------2----|----------------------|----------------------| 
D|----------------------|--2--------------2----|----------------------| 


e|----------------------|----------------------|----------------------| 
B|--0-----0--0-----1----|--0-----0--0----------|--------0--0----------| 
G|--------------2-------|--------------2-------|--------------2-------| 
D|-----4----------------|-----4-----------4----|-----4----------------| 
A|----------------------|----------------------|--2--------------0----| 
D|----------------------|----------------------|----------------------| 


e|----------------------|----------------------|----------------------| 
B|--------0--0----------|--------0--0----------|--------0--0----------| 
G|--------------2-------|--------------2-------|--------------2-------| 
D|-----4-----------4----|-----4----------------|-----4-----------0----| 
A|--2-------------------|--2--------------0----|--2-------------------| 
D|----------------------|----------------------|----------------------| 

            + 
e|-------|--5----|| 
B|-------|--5----|| 
G|-------|--5----|| 
D|--2----|-------|| 
A|-------|-------|| 
D|--2----|-------|| 
 
		  

See also:

tabs Misc Computer Games - Assassins Creed Black Flag - Randy Dandy O tabs Dirty Heads - Sloths Revenge tabs Misc Television - Gravity Falls Theme tabs Misc Computer Games - Resident Evil 4 - Save Theme tabs Misc Computer Games - Sea Of Thieves - Becalmed Hurdy-gurdy tabs Misc Computer Games - Rogue Legacy - Lamprey
e-chords

Other versions:

tabs Misc Television - Doctor Who Theme (acoustic)
auto scroll beats size up size down change color hide chords drawings
tab show chords e-chords YouTube Clip e-chords hide all tabs e-chords go to top tab

share