Misc Television

Community - French Excel Song

Misc Television

tabs

by  ALEFFEDERICO

save to print version add songbook text version e-mail correct tuner
chordsukulelecavacokeyboardtabbassdrumsharmonicaflute Guitar Pro
close

there isn't a video lesson for this song

chords

Community - French Excel Song

	  		


Je suis seule car il ne va pas apprendre Excel, Et je meurs car il ne va pas apprendre Excel 
e|--------------------------------------|--------------------------------------| 
B|--------2--------2--------2--------2--|--------3--------3--------3--------3--| 
G|-----1--------1--------1--------1-----|-----2--------2--------1--------1-----| 
D|--------------------------------------|--------------------2--------2--------| 
A|--0--------0--------0--------0--------|--2--------2--------------------------| 
E|--------------------------------------|--------------------------------------| 

Comme le marin qui fume cigarettes sur le canal           Oh? 
e|-----------------0--------0--------0--|--------------------------------------| 
B|--------1-----1--------1--------1-----|--------1--------1--------0--------0--|  
G|-----2-----1--------0--------0--------|-----2--------2-----------------------| 
D|--------------------------------------|--0--------0-----------3--------3-----|  
A|--0-----------------------------------|--------------------------------------| 
E|--------------------------------------|--------------------3--------3--------| 

Mais Excel ne sera pas appris aujourd'hui. Mes pensées ? sont françaises 
e|--------------------0-----------------|--------------------------------------| 
B|--1-----0--1-----0--------0--1-----0--|--------1--------1--------0--------0--| 
G|-----0--------0--------0--------0-----|-----2--------2-----------------------| 
D|--------------------------------------|--0--------0-----------3--------3-----| 
A|--3--------3-----------------3--------|--------------------------------------| 
E|--------------------------------------|--------------------3--------3--------| 

e|---------------------2----------------| 
B|--------3--------3---2----------------| 
G|---------------------2----------------| 
D|-----3--------3------2----------------| 
A|---------------------0----------------| 
E|--3--------3--------------------------| 


************************************ 

| /   slide up 
| \   slide down 
| h   hammer-on 
| p   pull-off 
| ~   vibrato 
| +   harmonic 
| x   Mute note 
| b   Bend 
| pb  Pre-bend 
| br  Bend release 
| pbr Pre-bend release 
| brb Bend release bend 

************************************ 
		  

See also:

tabs Misc Computer Games - Undertale - Main Theme (acoustic) tabs Andy James - Separation tabs Misc Computer Games - Chrono Trigger - Corridors Of Time tabs Misc Computer Games - Resident Evil 4 - Save Theme tabs Misc Computer Games - Far Cry 5 - Now That This Old World Is Ending tabs Misc Computer Games - The Witcher 3 Ost - Lullaby Of Woe A Night To Remember Song (acoustic)
e-chords

Other versions:

tabs Misc Television - Community - French Excel Song
auto scroll beats size up size down change color hide chords drawings
tab show chords e-chords YouTube Clip e-chords hide all tabs e-chords go to top tab

share