Misc Television

home > Misc Television

Brooklyn Nine-nine Background Guitar Jakes Proposal Tab

Misc Television

Difficulty: nolevelnolevel

by hugo%5Frodrigues

tuner correct add songbook print version text version save to e-mail
chordsukulelecavacokeyboardtabbassdrumsharmonicsflute Guitar Pro
chords

Brooklyn Nine-nine Background Guitar Jakes Proposal

	  
e|---------------------------------------------------------------| 
B|---------------------------------------------------------------| 
G|---------------------------------------------------------------| 
D|--4-----4--2-----4------4--2-(let string ring)-----------------| 
A|-5-----2--0-----5------2--0------------------------------------| 
E|---------------------------------------------------------------| 

e|-------------------------——-------|------------------------------| 
B|----------------------------------|------------------------------| 
G|--------------------------——------|------------------------------| 
D|------4--x-x--x-x-----x-x-----x-x-|-4--x-x--x-x-----x-x-----x-x--| 
A|-(0)-/5--x-x--x-x--9--x-x--7--x-x-|-5--x-x--x-x--9--x-x--5--x-x--| 
E|---------x-x--x-x--7--x-x--5--x-x-|-----x-x--x-x--7--x-x--3--x-x-| 

e|---------------------------------------------------------------| 
B|---------------------------------------------------------------| 
G|---------------------------------------------------------------| 
D|----x-x--x-x---------------------------------------------------| 
A|-7--x-x--x-x-------------------2-(let string ring)-------------| 
E|-5--x-x--x-x------------------0--------------------------------| 

e|-------------------------------------------|-------------------------------------| 
B|-------------------------------------------|-------------------------------------| 
G|-------------------------------------------|-------------------------------------| 
D|-----4-----0---2------4-4-4----------------|------4------0---2-(let string ring)-| 
A|-5-5---5----2---0-----5-5--5------5----7---|--5-5---5---2---0--------------------| 
E|---------------------------------3----5----|-------------------------------------| 

e|----------------------------|----------------------------------| 
B|----------------------------|----------------------------------| 
G|----------------------------|----------------------------------| 
D|--4-4------0h4--------------|----4--------0h4------------------| 
A|-5-----5--5---5----2---4----|---5-----5--5---5----2---4--------| 
E|------------------3---5-----|--------------------3---5---------| 

e|---------------------------------------------------------------| 
B|----------------------------5---------------------------7------| 
G|----------------------------6-------4-------------------7------| 
D|----------------------------7-------4-------7-----------7------| 
A|--2-(let string ring)-------7-------2-------7-----------5------| 
E|-3--------------------------5---------------5------------------| 



************************************ 

| x    Dead note 
| (n)  Ghost note 
| /    Slide up 
| h    Hammer-on 
| (let string ring)  

************************************ 
	  

there isn't a video lesson for this song

request
Search
auto scroll beats size up size down change color hide chords drawings
tab show chords e-chords YouTube Clip e-chords hide all tabs e-chords go to top tab