Misc Television Song

home > Misc Television So...

Tokyo Ghoul - Unravel Tab

Misc Television Song

Difficulty: nolevelnolevel

by robepoiel

tuner correct add songbook print version text version save to e-mail
chordsukulelecavacokeyboardtabbassdrumsharmonicsflute Guitar Pro
chords

Tokyo Ghoul - Unravel

  		
Intro:    Eb5      F5     F5      G5 
       e|----------------------------------|      0:14 
       B|---4--4----6--6----6--6----8--8---| X3 
       G|--3--3--3-5--5--5-5--5--5-7--7--7-| 
       D|-1--1--1-3--3--3-3--3--3-5--5--5--| 
       A|----------------------------------| 
       E|----------------------------------| 

Pre-Verse:    G5      G5 
           e|-----------------|      0:33 
           B|-----------------| 
           G|-----------------| 
           D|-5-x5-x5-5-x5-x5-| 
           A|-5-x5-x5-5-x5-x5-| 
           E|-3-x3-x3-3-x3-x3-| 

Lead Fill: e|-10-08-06-05-03-0-|      0:35 
           B|------------------|  X2 
           G|------------------| 
           D|------------------| 
           A|------------------| 
           E|------------------| 

Lead Solo: e|-17h18-13h15----------17h18-13h15----18p17-|      0:39 
           B|-------------13-15-13-------------15-------| X2 
           G|-------------------------------------------| 
           D|-------------------------------------------| 
           A|-------------------------------------------| 
           E|-------------------------------------------| 

Pre-Verse:    G5 
           e|------------|      0:46 
           B|------------| 
           G|------------| 
           D|-5-5-55-5-5-| 
           A|-5-5-55-5-5-| 
           E|-3-3-33-3-3-| 

Verse:    G5  Eb5 F5  Bb5 
       e|-----------------|      0:48 
       B|-8~--4~--6~------| 
       G|-7~--3~--5~--3~--| 
       D|-5~--1~--3~--3~--| 
       A|-------------1~--| 
       E|-----------------| 

          Eb5                             G5 
       e|----------------------------------------------------|      0:55 
       B|-4-x-4-x-4-x-4-x-4-x-4-x-4-x-4-x-8-x-8-x-8-x-8-x-8~-| 
       G|-3-x-3-x-3-x-3-x-3-x-3-x-3-x-3-x-7-x-7-x-7-x-7-x-7~-| 
       D|-1-x-1-x-1-x-1-x-1-x-1-x-1-x-1-x-5-x-5-x-5-x-5-x-5~-| 
       A|----------------------------------------------------| 
       E|----------------------------------------------------| 

Chorus:    Eb5             F5              G5              D5 
        e|-----------------------------------------------------------------|      1:02 
        B|-4-4-4-4-4-4-4-4-6-6-6-6-6-6-6-6-8-8-8-8-8-8-8-8-3-3-3-3-3-3-3-3-| 
        G|-3-3-3-3-3-3-3-3-5-5-5-5-5-5-5-5-7-7-7-7-7-7-7-7-2-2-2-2-2-2-2-2-| 
        D|-1-1-1-1-1-1-1-1-3-3-3-3-3-3-3-3-5-5-5-5-5-5-5-5-0-0-0-0-0-0-0-0-| 
        A|-----------------------------------------------------------------| 
        E|-----------------------------------------------------------------| 

           Eb5             F5              G5              Bb5               
        e|-------------------------------------------------6-6-6-6-6-6-6-6-| 
        B|-4-4-4-4-4-4-4-4-6-6-6-6-6-6-6-6-8-8-8-8-8-8-8-8-6-6-6-6-6-6-6-6-| 
        G|-3-3-3-3-3-3-3-3-5-5-5-5-5-5-5-5-7-7-7-7-7-7-7-7-3-3-3-3-3-3-3-3-| 
        D|-1-1-1-1-1-1-1-1-3-3-3-3-3-3-3-3-5-5-5-5-5-5-5-5-----------------| 
        A|-----------------------------------------------------------------| 
        E|-----------------------------------------------------------------| 

           Eb5             F5              G5              D5 
        e|-----------------------------------------------------------------|      1:16 
        B|-4-4-4-4-4-4-4-4-6-6-6-6-6-6-6-6-8-8-8-8-8-8-8-8-3-3-3-3-3-3-3-3-| 
        G|-3-3-3-3-3-3-3-3-5-5-5-5-5-5-5-5-7-7-7-7-7-7-7-7-2-2-2-2-2-2-2-2-| 
        D|-1-1-1-1-1-1-1-1-3-3-3-3-3-3-3-3-5-5-5-5-5-5-5-5-0-0-0-0-0-0-0-0-| 
        A|-----------------------------------------------------------------| 
        E|-----------------------------------------------------------------| 

           Eb5             F5 
        e|-----------------------|      1:23 
        B|-4-4-4-4-4-4-4-4-6~-6~-| 
        G|-3-3-3-3-3-3-3-3-5~-5~-| 
        D|-1-1-1-1-1-1-1-1-3~-3~-| 
        A|-----------------------| 
        E|-----------------------| 

Outro: e|-0-0-10-08-06-05-03-0-|      1:27 
       B|----------------------|  X2 
       G|----------------------| 
       D|----------------------| 
       A|----------------------| 
       E|----------------------| 

-End song at 1:31- 

------------------------------------------------------------------------------------------------------------ 
	  

Full key step upFull key step up
Half key step upHalf key step up
Half key step downHalf key step down
Full key step downFull key step down
Search Paypal
auto scroll beats size up size down change color hide chords drawings
tab show chords e-chords YouTube Clip e-chords hide all tabs e-chords go to top tab