Misc Soundtrack

home > Misc Soundtrack

Avengers Endgame - Portals Tab

Misc Soundtrack

Difficulty: nolevelnolevel

by joaoewerton

tuner correct add songbook print version text version save to e-mail
chordsukulelecavacokeyboardtabbassdrumsharmonicsflute Guitar Pro
chords

Avengers Endgame - Portals

  		
Part 1 - slow 

e|--------------------------------------------1-1----------------2-2-------0---0-2--2-| 
B|----3-3---------------------------------3-3-----1-1-4-4----4-4-----0-2-4---2--------| 
G|0-0------3-2---0----0-2-3--3-2--2----0----------------------------------------------| 
D|-------------3--------------------3-------------------------------------------------| 
A|------------------------------------------------------------------------------------| 
E|------------------------------------------------------------------------------------| 


Part 2 - med. slow 

e|--------------------------------------------------2-4-6-7--4-7-9----7-9--9-8--------------------------| 
B|------------------------1-1---------3-3-------2-2-----------------9------------0-0--------------------| 
G|--2-2---------2-2---2-2-----0-0-3-3-----0-3-3--------------------------------------0-2----0-2--2------| 
D|0-----3-2---0-----0---------------------------------------------------------------------2--------2--2-| 
A|----------3------------------------------------------------------------------7------------------------| 
E|------------------------------------------------------------------------------------------------------| 


Part 3 - fast 

e|0-0--0-0--0-0--3-3-2-2-5-5--5-5------3-3-2-2-5-5--5-5--3-5------------------3-3-2-2-5-5--5-5-----0--0-2-| 
B|----------------------------------5-5------------------------5-5--5-5--5-5---------------------3--------| 
G|--------------------------------------------------------------------------------------------------------| 
D|--------------------------------------------------------------------------------------------------------| 
A|--------------------------------------------------------------------------------------------------------| 
E|--------------------------------------------------------------------------------------------------------| 


Part 4 - medium 

e|--------------------------------------------0----0-0--7-5--3-2----0--0-2--10-12--12-14--12-14-| 
B|---------0------------------0-2---------------------------------------------------------------| 
G|-----------2--0------------------2------------------------------------------------------------| 
D|-2--2-2---------4---2--2-2---------2--1-------------------------------------------------------| 
A|----------------------------------------------------------------------------------------------| 
E|----------------------------------------------------------------------------------------------| 
	  

Search Paypal
auto scroll beats size up size down change color hide chords drawings
tab show chords e-chords YouTube Clip e-chords hide all tabs e-chords go to top tab