Misc Computer Games

The Witcher 3 Wild Hunt - The Wolven Storm Priscillas Song

Misc Computer Games

tabs Expert expert

by  BRUNBLAZKOWSKI

save to print version add songbook text version e-mail correct tuner
chordsukulelecavacokeyboardtabbassdrumsharmonicaflute Guitar Pro
close

there isn't a video lesson for this song

chords

The Witcher 3 Wild Hunt - The Wolven Storm Priscillas Song

	  		Intro/Outro: 

     E  E  E  E  E  E  E  E     Q    Q    Q    Q       E  E  E  E  E  E  E  E    
E||--1--0--1--0--1--0--1--0--|--1-------------------|--1--0--1--0--1--0--1--0--| 
B||--------------3-----------|----------------------|--------------3-----------| 
G||--------2-----------------|--2-------------------|--------2-----------------| 
D||--0-----------------------|-------0----2----3----|--------------------------| 
A||--------------------------|----------------------|--1-----------------------| 
E||--------------------------|----------------------|--------------------------| 


  Q    Q    Q    E  E     E  E  E  E  E  E  E  E     Q    Q    Q    Q      
--1---------3----1--0--|--1--0--1--0--1--0--1--0--|--1-------------------| 
-----------------------|--------------3-----------|----------------------| 
-------2----0----2--0--|--------2-----------------|--2-------------------| 
-----------------------|--0-----------------------|-------0----2----3----| 
--1--------------------|--------------------------|----------------------| 
-----------------------|--------------------------|----------------------| 


                                                 ^                  
  E  E  E  E  E  E  E  E     W                   W                  
--1--0--1--0--1--0--1--0--|--1----------------|--0----------------| 
--------------3-----------|-------------------|--3----------------| 
--------2-----------------|-------------------|--0----------------| 
--------------------------|-------------------|--2----------------| 
--1-----------------------|--1----------------|--3----------------| 
--------------------------|-------------------|-------------------| 

Verse: 

  E  E  E  E  E  E  E  E     E  E  E  E  E  E  E  E    
--------------0-----------|--1-----------0-----------| 
--------3-----------3-----|--------3-----------3-----| 
-----2-----2-----2-----2--|-----2-----2-----2-----2--| 
--0-----------------------|--------------------------| 
--------------------------|--1-----------------------| 
--------------------------|--------------------------| 


  E  E  E  E  E  E  E  E     E  E  E  E  E  E  Q       E  E  E  E  E  E  E  E    
--------------0-----------|-----------0--------0----|--------------0-----------| 
--------3-----------3-----|--------3-----2----------|--3-----3-----------3-----| 
-----2-----2-----2-----2--|-----2-----------2-------|-----3-----3-----3-----3--| 
--0-----------------------|-------------------------|--------------------------| 
--------------------------|--1-----------0----------|--1-----------------------| 
--------------------------|-------------------------|--------------------------| 


                          ^                          ^                      
  E  E  Q    Q    Q       E  E  E  E  E  E  E  E     E  E  E  E  H          
-----------------------|--1--0--1--0--1--0--1--0--|--3-----1--0-----------| 
--------3----3---------|--3--3--3--3--3--3--3--3--|--3--3--------3--------| 
--------3---------2----|--2-----------------------|--2--------------------| 
-----0-----------------|--0-----------------------|--0--------------------| 
-------------0---------|--------------------------|-----------------------| 
--3--------------------|--------------------------|-----------------------| 

Refrain: 

  E  E  Q    E  E  Q       E  E  Q    E  E  Q       E  E  Q    E  E  Q      
--------1----------1----|--------1----------1----|--------1----------1----| 
--------3----------3----|--------3----------3----|--------3----------3----| 
-----2----------2-------|-----2----------2-------|-----2----------2-------| 
--0----------0----------|--0----------0----------|------------------------| 
------------------------|------------------------|--1----------1----------| 
------------------------|------------------------|------------------------| 


  E  E  Q    E  E  Q       E  E  Q    E  E  Q       E  E  Q    E  E  Q      
--------1----------0----|--------1----------1----|--------1----------1----| 
--------3----------3----|--------3----------3----|--------3----------3----| 
-----2----------0-------|-----2----------2-------|-----2----------2-------| 
------------------------|--0----------0----------|--0----------0----------| 
--1----------3----------|------------------------|------------------------| 
------------------------|------------------------|------------------------| 


  E  E  Q    E  E  Q       E  E  E  E  H           E  E  E  E  E  E  E  E    
--------0----------0----|--0--------0-----------|--------------0-----------| 
--------3----------3----|--------3-----2--------|--------3-----------3-----| 
-----2----------2-------|-----2-----------------|-----2-----2-----2-----2--| 
------------------------|-----------------------|--0-----------------------| 
--1----------1----------|--0--------------------|--------------------------| 
------------------------|-----------------------|--------------------------| 

2nd Guitar (only during 3rd refrain) 

  E  E  E  E  E  E  E  E     E  E  E  E  E  E  E  E    
--------5-----------5-----|--------5-----------5-----| 
-----6-----6-----6-----6--|-----6-----6-----6-----6--| 
--7-----------7-----------|--7-----------7-----------| 
--------------------------|--------------------------| 
--------------------------|--------------------------| 
--------------------------|--------------------------| 


  E  E  E  E  E  E  E  E     E  E  E  E  E  E  E  E    
--------5-----------5-----|--------5-----------3-----| 
-----6-----6-----6-----6--|-----6-----6-----5-----5--| 
--7-----------7-----------|--7-----------5-----------| 
--------------------------|--------------------------| 
--------------------------|--------------------------| 
--------------------------|--------------------------| 


  E  E  E  E  E  E  E  E     E  E  E  E  E  E  E  E    
--------5-----------5-----|--------5-----------5-----| 
-----6-----6-----6-----6--|-----6-----6-----6-----6--| 
--7-----------7-----------|--7-----------7-----------| 
--------------------------|--------------------------| 
--------------------------|--------------------------| 
--------------------------|--------------------------| 


                                         ^                                  
  E  E  E  E  E  E  E  E     E  E  E  E  H                                  
--------5-----------5-----|--------5-----5--------|-----------|-----------| 
-----5-----5-----5-----5--|-----5-----5--5--------|-----------|-----------| 
--7-----------7-----------|--7-----------6--------|-----------|-----------| 
--------------------------|-----------------------|-----------|-----------| 
--------------------------|-----------------------|-----------|-----------| 
--------------------------|-----------------------|-----------|-----------| 

 
		  

Full key step upFull key step up
Half key step upHalf key step up
Half key step downHalf key step down
Full key step downFull key step down
auto scroll beats size up size down change color hide chords drawings
tab show chords e-chords YouTube Clip e-chords hide all tabs e-chords go to top tab

share