Misc Computer Games

The Guardian Legend - Crystal Corridors Area 3 Tab

Misc Computer Games

Difficulty: nolevelnolevel

by aleffederico

tuner correct add songbook print version text version save to e-mail
chordsukulelecavacokeyboardtabbassdrumsharmonicsflute Guitar Pro
close

there isn't a video lesson for this song

request
chords

The Guardian Legend - Crystal Corridors Area 3

  		The Guardian Legend (NES) - Crystal Corridors (Area 3)...on bass!!! 

Gtr I (B E A D G C) - 'Squarewave arranged for 6 string bass' 

   4/4 
    Gtr I 
     S  S  S  S  S  S  S  S  S  S  S  S  S  S  S  S 
C||--------------------------------------------------| 
G||o-14----------14----------14----------14----------| 
D||-----14-14-14----14-14-14----14-14-14----14-14-14-| 
A||--------------------------------------------------| 
E||o-------------------------------------------------| 
B||--------------------------------------------------| 


   S  S  S  S  S  S  S  S  S  S  S  S  S  S  S  S 
C|-------------------------------------------------| 
G|-------------------------------------------------| 
D|-15----------15----------15----------15----------| 
A|----15-15-15----15-15-15----15-15-15----15-15-15-| 
E|-------------------------------------------------| 
B|-------------------------------------------------| 


   S  S  S  S  S  S  S  S  S  S  S  S  S  S  S  S 
C|-------------------------------------------------| 
G|-12----------12----------12----------12----------| 
D|----12-12-12----12-12-12----12-12-12----12-12-12-| 
A|-------------------------------------------------| 
E|-------------------------------------------------| 
B|-------------------------------------------------| 


   S  S  S  S  S  S  S  S  S  S  S  S  S  S  S  S 
C|---------------------------------------------------| 
G|---------------------------------------------------| 
D|-14----------14----------14----------14------------| 
A|----14-14-14----14-14-14----14-14-14----14-14-14---| 
E|---------------------------------------------------| 
B|---------------------------------------------------| 


   S  S  S  S  S  S  S  S  S  S  S  S  S  S  S  S 
C|-------------21----------------------21----------| 
G|----------------------21----------------------21-| 
D|-19-------19----19-19----19-------19----19-19----| 
A|----19-19-------------------19-19----------------| 
E|-------------------------------------------------| 
B|-------------------------------------------------| 


   S  S  S  S  S  S  S  S  S  S  S  S  S  S  S  S 
C|-------------17----------------------17------------| 
G|----------------------17----------------------17---| 
D|-15-------15----15-15----15-------15----15-15------| 
A|----15-15-------------------15-15------------------| 
E|---------------------------------------------------| 
B|---------------------------------------------------| 


   S  S  S  S  S  S  S  S  S  S  S  S  S  S  S  S 
C|-------------19----------------------19----------| 
G|----------------------19----------------------19-| 
D|-17-------17----17-17----17-------17----17-17----| 
A|----17-17-------------------17-17----------------| 
E|-------------------------------------------------| 
B|-------------------------------------------------| 


   S  S  S  S  S  S  S  S  S  S  S  S  S  S  S  S 
C|-------------16----------------------16------------| 
G|----------------------16----------------------16---| 
D|-14-------14----14-14----14-------14----14-14------| 
A|----14-14-------------------14-14------------------| 
E|---------------------------------------------------| 
B|---------------------------------------------------| 


   S  S  Q.    E  Q.      E  Q.    E  Q. 
C|-------14----16-------|-14----------------| 
G|----------------17----|----16----17-14----| 
D|-14-14----------------|-------------------| 
A|----------------------|-------------------| 
E|----------------------|-------------------| 
B|----------------------|-------------------| 


   +E   Q.    E  E  E  E    E  H     Q. 
C|---------------14-------|-14-16-----------| 
G|-(14)-16----17----16-17-|----------16-----| 
D|------------------------|-----------------| 
A|------------------------|-----------------| 
E|------------------------|-----------------| 
B|------------------------|-----------------| 


   +E   Q.    E  E  E  E    E  H     Q. 
C|------------14-16----14-|-16-19----17----| 
G|-(16)-17----------17----|----------------| 
D|------------------------|----------------| 
A|------------------------|----------------| 
E|------------------------|----------------| 
B|------------------------|----------------| 


   E  Q   Q   E  Q     +E   H    Q. 
C|-21-21--19-----19--|-(19)-16----------| 
G|------------19-----|------------------| 
D|-------------------|------------------| 
A|-------------------|------------------| 
E|-------------------|------------------| 
B|-------------------|------------------| 


   S  S  S  S  S  S  S  S  S  S  S  S  S  S  S  S 
C|-------------------------------------------------| 
G|-14----------14----------14----------14----------| 
D|----14-14-14----14-14-14----14-14-14----14-14-14-| 
A|-------------------------------------------------| 
E|-------------------------------------------------| 
B|-------------------------------------------------| 


   S  S  S  S  S  S  S  S  S  S  S  S  S  S  S  S 
C|---------------------------------------------------| 
G|---------------------------------------------------| 
D|-15----------15----------15----------15------------| 
A|----15-15-15----15-15-15----15-15-15----15-15-15---| 
E|---------------------------------------------------| 
B|---------------------------------------------------| 


   S  S  S  S  S  S  S  S  S  S  S  S  S  S  S  S 
C|-------------------------------------------------| 
G|-12----------12----------12----------12----------| 
D|----12-12-12----12-12-12----12-12-12----12-12-12-| 
A|-------------------------------------------------| 
E|-------------------------------------------------| 
B|-------------------------------------------------| 


   S  S  S  S  S  S  S  S  S  S  S  S  S  S  S  S 
C|----------------------------------------------------|| 
G|---------------------------------------------------o|| 
D|-14----------14----------14----------14-------------|| 
A|----14-14-14----14-14-14----14-14-14----14-14-14----|| 
E|---------------------------------------------------o|| 
B|----------------------------------------------------|| 
 
	  

Full key step upFull key step up
Half key step upHalf key step up
Half key step downHalf key step down
Full key step downFull key step down
Search Paypal
auto scroll beats size up size down change color hide chords drawings
tab show chords e-chords YouTube Clip e-chords hide all tabs e-chords go to top tab

share with facebook